  0
SECTION
  2
HEADER
  9
$ACADVER
  1
AC1024
  9
$ACADMAINTVER
 70
    63
  9
$DWGCODEPAGE
  3
ANSI_1252
  9
$LASTSAVEDBY
  1
ortelt
  9
$INSBASE
 10
0.0
 20
0.0
 30
0.0
  9
$EXTMIN
 10
4442265.000822438
 20
5952170.364180001
 30
0.0
  9
$EXTMAX
 10
4442490.451606999
 20
5952420.517
 30
0.0
  9
$LIMMIN
 10
4442219.104993999
 20
5952118.592282
  9
$LIMMAX
 10
4442548.862933
 20
5952468.349166
  9
$ORTHOMODE
 70
     0
  9
$REGENMODE
 70
     1
  9
$FILLMODE
 70
     1
  9
$QTEXTMODE
 70
     0
  9
$MIRRTEXT
 70
     0
  9
$LTSCALE
 40
1.0
  9
$ATTMODE
 70
     1
  9
$TEXTSIZE
 40
1.0
  9
$TRACEWID
 40
0.05
  9
$TEXTSTYLE
  7
SIMPLEX
  9
$CLAYER
  8
Flurstuck NB
  9
$CELTYPE
  6
CONTINUOUS
  9
$CECOLOR
 62
   256
  9
$CELTSCALE
 40
1.0
  9
$DISPSILH
 70
     0
  9
$DIMSCALE
 40
1.0
  9
$DIMASZ
 40
0.18
  9
$DIMEXO
 40
0.0625
  9
$DIMDLI
 40
0.38
  9
$DIMRND
 40
0.0
  9
$DIMDLE
 40
0.0
  9
$DIMEXE
 40
0.18
  9
$DIMTP
 40
0.0
  9
$DIMTM
 40
0.0
  9
$DIMTXT
 40
0.18
  9
$DIMCEN
 40
0.09
  9
$DIMTSZ
 40
0.0
  9
$DIMTOL
 70
     0
  9
$DIMLIM
 70
     0
  9
$DIMTIH
 70
     1
  9
$DIMTOH
 70
     1
  9
$DIMSE1
 70
     0
  9
$DIMSE2
 70
     0
  9
$DIMTAD
 70
     0
  9
$DIMZIN
 70
     0
  9
$DIMBLK
  1

  9
$DIMASO
 70
     1
  9
$DIMSHO
 70
     1
  9
$DIMPOST
  1

  9
$DIMAPOST
  1

  9
$DIMALT
 70
     0
  9
$DIMALTD
 70
     2
  9
$DIMALTF
 40
25.4
  9
$DIMLFAC
 40
1.0
  9
$DIMTOFL
 70
     0
  9
$DIMTVP
 40
0.0
  9
$DIMTIX
 70
     0
  9
$DIMSOXD
 70
     0
  9
$DIMSAH
 70
     0
  9
$DIMBLK1
  1

  9
$DIMBLK2
  1

  9
$DIMSTYLE
  2
STANDARD
  9
$DIMCLRD
 70
     0
  9
$DIMCLRE
 70
     0
  9
$DIMCLRT
 70
     0
  9
$DIMTFAC
 40
1.0
  9
$DIMGAP
 40
0.09
  9
$DIMJUST
 70
     0
  9
$DIMSD1
 70
     0
  9
$DIMSD2
 70
     0
  9
$DIMTOLJ
 70
     1
  9
$DIMTZIN
 70
     0
  9
$DIMALTZ
 70
     0
  9
$DIMALTTZ
 70
     0
  9
$DIMUPT
 70
     0
  9
$DIMDEC
 70
     4
  9
$DIMTDEC
 70
     4
  9
$DIMALTU
 70
     2
  9
$DIMALTTD
 70
     2
  9
$DIMTXSTY
  7
Standard
  9
$DIMAUNIT
 70
     0
  9
$DIMADEC
 70
     0
  9
$DIMALTRND
 40
0.0
  9
$DIMAZIN
 70
     0
  9
$DIMDSEP
 70
    46
  9
$DIMATFIT
 70
     3
  9
$DIMFRAC
 70
     0
  9
$DIMLDRBLK
  1

  9
$DIMLUNIT
 70
     2
  9
$DIMLWD
 70
    -2
  9
$DIMLWE
 70
    -2
  9
$DIMTMOVE
 70
     0
  9
$DIMFXL
 40
1.0
  9
$DIMFXLON
 70
     0
  9
$DIMJOGANG
 40
0.7853981633974483
  9
$DIMTFILL
 70
     0
  9
$DIMTFILLCLR
 70
     0
  9
$DIMARCSYM
 70
     0
  9
$DIMLTYPE
  6

  9
$DIMLTEX1
  6

  9
$DIMLTEX2
  6

  9
$DIMTXTDIRECTION
 70
     0
  9
$LUNITS
 70
     2
  9
$LUPREC
 70
     4
  9
$SKETCHINC
 40
0.1
  9
$FILLETRAD
 40
0.0
  9
$AUNITS
 70
     0
  9
$AUPREC
 70
     0
  9
$MENU
  1
.
  9
$ELEVATION
 40
0.0
  9
$PELEVATION
 40
0.0
  9
$THICKNESS
 40
0.0
  9
$LIMCHECK
 70
     0
  9
$CHAMFERA
 40
0.0
  9
$CHAMFERB
 40
0.0
  9
$CHAMFERC
 40
0.0
  9
$CHAMFERD
 40
0.0
  9
$SKPOLY
 70
     0
  9
$TDCREATE
 40
2455596.615621562
  9
$TDUCREATE
 40
2455596.532288229
  9
$TDUPDATE
 40
2455714.622682651
  9
$TDUUPDATE
 40
2455714.539349317
  9
$TDINDWG
 40
0.0126378125
  9
$TDUSRTIMER
 40
0.0126378125
  9
$USRTIMER
 70
     1
  9
$ANGBASE
 50
0.0
  9
$ANGDIR
 70
     0
  9
$PDMODE
 70
     0
  9
$PDSIZE
 40
0.0
  9
$PLINEWID
 40
0.0
  9
$SPLFRAME
 70
     0
  9
$SPLINETYPE
 70
     6
  9
$SPLINESEGS
 70
     8
  9
$HANDSEED
  5
389
  9
$SURFTAB1
 70
     6
  9
$SURFTAB2
 70
     6
  9
$SURFTYPE
 70
     6
  9
$SURFU
 70
     6
  9
$SURFV
 70
     6
  9
$UCSBASE
  2

  9
$UCSNAME
  2

  9
$UCSORG
 10
0.0
 20
0.0
 30
0.0
  9
$UCSXDIR
 10
1.0
 20
0.0
 30
0.0
  9
$UCSYDIR
 10
0.0
 20
1.0
 30
0.0
  9
$UCSORTHOREF
  2

  9
$UCSORTHOVIEW
 70
     0
  9
$UCSORGTOP
 10
0.0
 20
0.0
 30
0.0
  9
$UCSORGBOTTOM
 10
0.0
 20
0.0
 30
0.0
  9
$UCSORGLEFT
 10
0.0
 20
0.0
 30
0.0
  9
$UCSORGRIGHT
 10
0.0
 20
0.0
 30
0.0
  9
$UCSORGFRONT
 10
0.0
 20
0.0
 30
0.0
  9
$UCSORGBACK
 10
0.0
 20
0.0
 30
0.0
  9
$PUCSBASE
  2

  9
$PUCSNAME
  2

  9
$PUCSORG
 10
0.0
 20
0.0
 30
0.0
  9
$PUCSXDIR
 10
1.0
 20
0.0
 30
0.0
  9
$PUCSYDIR
 10
0.0
 20
1.0
 30
0.0
  9
$PUCSORTHOREF
  2

  9
$PUCSORTHOVIEW
 70
     0
  9
$PUCSORGTOP
 10
0.0
 20
0.0
 30
0.0
  9
$PUCSORGBOTTOM
 10
0.0
 20
0.0
 30
0.0
  9
$PUCSORGLEFT
 10
0.0
 20
0.0
 30
0.0
  9
$PUCSORGRIGHT
 10
0.0
 20
0.0
 30
0.0
  9
$PUCSORGFRONT
 10
0.0
 20
0.0
 30
0.0
  9
$PUCSORGBACK
 10
0.0
 20
0.0
 30
0.0
  9
$USERI1
 70
     0
  9
$USERI2
 70
     0
  9
$USERI3
 70
     0
  9
$USERI4
 70
     0
  9
$USERI5
 70
     0
  9
$USERR1
 40
0.0
  9
$USERR2
 40
0.0
  9
$USERR3
 40
0.0
  9
$USERR4
 40
0.0
  9
$USERR5
 40
0.0
  9
$WORLDVIEW
 70
     1
  9
$SHADEDGE
 70
     3
  9
$SHADEDIF
 70
    70
  9
$TILEMODE
 70
     1
  9
$MAXACTVP
 70
    64
  9
$PINSBASE
 10
0.0
 20
0.0
 30
0.0
  9
$PLIMCHECK
 70
     0
  9
$PEXTMIN
 10
24.53639869689943
 20
20.58670020103455
 30
0.0
  9
$PEXTMAX
 10
220.8275882720947
 20
185.2803018093109
 30
0.0
  9
$PLIMMIN
 10
0.0
 20
0.0
  9
$PLIMMAX
 10
12.0
 20
9.0
  9
$UNITMODE
 70
     0
  9
$VISRETAIN
 70
     1
  9
$PLINEGEN
 70
     0
  9
$PSLTSCALE
 70
     1
  9
$TREEDEPTH
 70
  3020
  9
$CMLSTYLE
  2
STANDARD
  9
$CMLJUST
 70
     0
  9
$CMLSCALE
 40
1.0
  9
$PROXYGRAPHICS
 70
     1
  9
$MEASUREMENT
 70
     1
  9
$CELWEIGHT
370
    -1
  9
$ENDCAPS
280
     0
  9
$JOINSTYLE
280
     0
  9
$LWDISPLAY
290
     0
  9
$INSUNITS
 70
     4
  9
$HYPERLINKBASE
  1

  9
$STYLESHEET
  1

  9
$XEDIT
290
     1
  9
$CEPSNTYPE
380
     0
  9
$PSTYLEMODE
290
     1
  9
$FINGERPRINTGUID
  2
{267A69F3-0E44-4549-9FB7-5752D1E51089}
  9
$VERSIONGUID
  2
{DE06A4EB-BC8D-4AA2-8FC6-0E56533F2030}
  9
$EXTNAMES
290
     1
  9
$PSVPSCALE
 40
0.0
  9
$OLESTARTUP
290
     0
  9
$SORTENTS
280
   127
  9
$INDEXCTL
280
     0
  9
$HIDETEXT
280
     1
  9
$XCLIPFRAME
280
     0
  9
$HALOGAP
280
     0
  9
$OBSCOLOR
 70
   257
  9
$OBSLTYPE
280
     0
  9
$INTERSECTIONDISPLAY
280
     0
  9
$INTERSECTIONCOLOR
 70
   257
  9
$DIMASSOC
280
     2
  9
$PROJECTNAME
  1

  9
$CAMERADISPLAY
290
     0
  9
$LENSLENGTH
 40
50.0
  9
$CAMERAHEIGHT
 40
0.0
  9
$STEPSPERSEC
 40
2.0
  9
$STEPSIZE
 40
6.0
  9
$3DDWFPREC
 40
2.0
  9
$PSOLWIDTH
 40
0.25
  9
$PSOLHEIGHT
 40
4.0
  9
$LOFTANG1
 40
1.570796326794896
  9
$LOFTANG2
 40
1.570796326794896
  9
$LOFTMAG1
 40
0.0
  9
$LOFTMAG2
 40
0.0
  9
$LOFTPARAM
 70
     7
  9
$LOFTNORMALS
280
     1
  9
$LATITUDE
 40
37.795
  9
$LONGITUDE
 40
-122.394
  9
$NORTHDIRECTION
 40
0.0
  9
$TIMEZONE
 70
 -8000
  9
$LIGHTGLYPHDISPLAY
280
     1
  9
$TILEMODELIGHTSYNCH
280
     1
  9
$CMATERIAL
347
19E
  9
$SOLIDHIST
280
     0
  9
$SHOWHIST
280
     1
  9
$DWFFRAME
280
     2
  9
$DGNFRAME
280
     0
  9
$REALWORLDSCALE
290
     1
  9
$INTERFERECOLOR
 62
     1
  9
$INTERFEREOBJVS
345
1C0
  9
$INTERFEREVPVS
346
2E1
  9
$CSHADOW
280
     0
  9
$SHADOWPLANELOCATION
 40
0.0
  0
ENDSEC
  0
SECTION
  2
CLASSES
  0
CLASS
  1
IMAGEDEF
  2
AcDbRasterImageDef
  3
ISM
 90
        0
 91
        0
280
     0
281
     0
  0
CLASS
  1
IMAGEDEF_REACTOR
  2
AcDbRasterImageDefReactor
  3
ISM
 90
        1
 91
        0
280
     0
281
     0
  0
CLASS
  1
IMAGE
  2
AcDbRasterImage
  3
ISM
 90
     2175
 91
        0
280
     0
281
     1
  0
CLASS
  1
ACDBDICTIONARYWDFLT
  2
AcDbDictionaryWithDefault
  3
ObjectDBX Classes
 90
        0
 91
        1
280
     0
281
     0
  0
CLASS
  1
MATERIAL
  2
AcDbMaterial
  3
ObjectDBX Classes
 90
     1153
 91
        3
280
     0
281
     0
  0
CLASS
  1
VISUALSTYLE
  2
AcDbVisualStyle
  3
ObjectDBX Classes
 90
     4095
 91
       26
280
     0
281
     0
  0
CLASS
  1
TABLESTYLE
  2
AcDbTableStyle
  3
ObjectDBX Classes
 90
     4095
 91
        2
280
     0
281
     0
  0
CLASS
  1
SCALE
  2
AcDbScale
  3
ObjectDBX Classes
 90
     1153
 91
       33
280
     0
281
     0
  0
CLASS
  1
MLEADERSTYLE
  2
AcDbMLeaderStyle
  3
ACDB_MLEADERSTYLE_CLASS
 90
     4095
 91
        1
280
     0
281
     0
  0
CLASS
  1
DMMAPMANAGER
  2
AcMapDMMapManager
  3
AcMapDisplayManagement
 90
     1024
 91
        1
280
     0
281
     0
  0
CLASS
  1
DMSTYLELIBRARY
  2
AcMapDMStyleLibrary
  3
AcMapDisplayManagement
 90
     1024
 91
        1
280
     0
281
     0
  0
CLASS
  1
DMSTYLECATEGORY
  2
AcMapDMStyleCategory
  3
AcMapDisplayManagement
 90
     1024
 91
        1
280
     0
281
     0
  0
CLASS
  1
DATATABLE
  2
AcDbDataTable
  3
ObjectDBX Classes
 90
        0
 91
        1
280
     0
281
     0
  0
CLASS
  1
EXACXREFPANELOBJECT
  2
ExAcXREFPanelObject
  3
EXAC_ESW
 90
     1025
 91
        1
280
     0
281
     0
  0
CLASS
  1
NPOCOLLECTION
  2
AcDbImpNonPersistentObjectsCollection
  3
ObjectDBX Classes
 90
     1153
 91
        1
280
     0
281
     0
  0
CLASS
  1
DMMAP
  2
AcMapDMMap
  3
AcMapDisplayManagement
 90
     1024
 91
        1
280
     0
281
     0
  0
CLASS
  1
DMBASEELEMENT
  2
AcMapDMBaseElement
  3
AcMapDisplayManagement
 90
     1024
 91
        1
280
     0
281
     0
  0
CLASS
  1
DMDEFAULTSTYLE
  2
AcMapDMDefaultStyle
  3
AcMapDisplayManagement
 90
     1024
 91
        1
280
     0
281
     0
  0
CLASS
  1
DMSTYLEREFERENCE
  2
AcMapDMStyleReference
  3
AcMapDisplayManagement
 90
     1024
 91
        1
280
     0
281
     0
  0
CLASS
  1
DMSURROGATESTYLESETS
  2
AcMapDMSurrogateStyleSets
  3
AcMapDisplayManagement
 90
     1153
 91
        1
280
     0
281
     0
  0
CLASS
  1
DMSTYLIZEDENTITIESTABLE
  2
AcMapDMStylizedEntitiesTable
  3
AcMapDisplayManagement
 90
     1024
 91
        1
280
     0
281
     0
  0
CLASS
  1
MAPGWSUNDOOBJECT
  2
AcMapGWSUndoRecorder
  3
AcMapFeatureSourceManager
 90
     1025
 91
        1
280
     0
281
     0
  0
CLASS
  1
CELLSTYLEMAP
  2
AcDbCellStyleMap
  3
ObjectDBX Classes
 90
     1152
 91
        4
280
     0
281
     0
  0
CLASS
  1
DICTIONARYVAR
  2
AcDbDictionaryVar
  3
ObjectDBX Classes
 90
        0
 91
        7
280
     0
281
     0
  0
CLASS
  1
SORTENTSTABLE
  2
AcDbSortentsTable
  3
ObjectDBX Classes
 90
        0
 91
        1
280
     0
281
     0
  0
CLASS
  1
MAPRESOURCEMANAGEROBJECT
  2
AcMapResourceManager
  3
AcMapSharedComponents
 90
     1024
 91
        1
280
     0
281
     0
  0
ENDSEC
  0
SECTION
  2
TABLES
  0
TABLE
  2
VPORT
  5
188
102
{ACAD_XDICTIONARY
360
226
102
}
330
0
100
AcDbSymbolTable
 70
     2
  0
VPORT
  5
21
330
188
100
AcDbSymbolTableRecord
100
AcDbViewportTableRecord
  2
A
 70
     0
 10
0.0
 20
0.0
 11
1.0
 21
1.0
 12
0.0
 22
0.0
 13
0.0
 23
0.0
 14
1.0
 24
1.0
 15
0.0
 25
0.0
 16
0.0
 26
0.0
 36
1.0
 17
4442383.983963
 27
5952293.470723999
 37
0.0
 40
269.043757
 41
0.94282
 42
50.0
 43
0.0
 44
0.0
 50
0.0
 51
0.0
 71
     0
 72
   100
 73
     1
 74
     3
 75
     0
 76
     0
 77
     0
 78
     0
281
     0
 65
     1
110
0.0
120
0.0
130
0.0
111
1.0
121
0.0
131
0.0
112
0.0
122
1.0
132
0.0
 79
     0
146
0.0
348
1BC
 60
     3
 61
     5
292
     1
282
     1
141
0.0
142
0.0
 63
   250
421
  3355443
  0
VPORT
  5
2DA
330
188
100
AcDbSymbolTableRecord
100
AcDbViewportTableRecord
  2
*Active
 70
     0
 10
0.0
 20
0.0
 11
1.0
 21
1.0
 12
4442462.160107441
 22
5952334.555608984
 13
0.0
 23
0.0
 14
1.0
 24
1.0
 15
0.0
 25
0.0
 16
0.0
 26
0.0
 36
1.0
 17
0.0
 27
0.0
 37
0.0
 40
407.6975677364782
 41
1.519480519480519
 42
50.0
 43
0.0
 44
0.0
 50
0.0
 51
0.0
 71
     0
 72
   100
 73
     1
 74
     3
 75
     0
 76
     0
 77
     0
 78
     0
281
     0
 65
     1
110
0.0
120
0.0
130
0.0
111
1.0
121
0.0
131
0.0
112
0.0
122
1.0
132
0.0
 79
     0
146
0.0
348
1BC
 60
     3
 61
     5
292
     1
282
     1
141
0.0
142
0.0
 63
   250
421
  3355443
1001
ACAD_NAV_VCDISPLAY
1070
     3
  0
ENDTAB
  0
TABLE
  2
LTYPE
  5
189
330
0
100
AcDbSymbolTable
 70
     6
  0
LTYPE
  5
4
330
189
100
AcDbSymbolTableRecord
100
AcDbLinetypeTableRecord
  2
BYBLOCK
 70
     0
  3

 72
    65
 73
     0
 40
0.0
  0
LTYPE
  5
5
330
189
100
AcDbSymbolTableRecord
100
AcDbLinetypeTableRecord
  2
BYLAYER
 70
     0
  3

 72
    65
 73
     0
 40
0.0
  0
LTYPE
  5
6
330
189
100
AcDbSymbolTableRecord
100
AcDbLinetypeTableRecord
  2
CONTINUOUS
 70
     0
  3
solid line
 72
    65
 73
     0
 40
0.0
  0
LTYPE
  5
101
330
189
100
AcDbSymbolTableRecord
100
AcDbLinetypeTableRecord
  2
9233
 70
     0
  3
solid line
 72
    65
 73
     0
 40
0.0
  0
LTYPE
  5
103
330
189
100
AcDbSymbolTableRecord
100
AcDbLinetypeTableRecord
  2
1
 70
     0
  3
solid line
 72
    65
 73
     0
 40
0.0
  0
LTYPE
  5
11B
330
189
100
AcDbSymbolTableRecord
100
AcDbLinetypeTableRecord
  2
232
 70
     0
  3
solid line
 72
    65
 73
     0
 40
0.0
  0
LTYPE
  5
14B
330
189
100
AcDbSymbolTableRecord
100
AcDbLinetypeTableRecord
  2
1013
 70
     0
  3
solid line
 72
    65
 73
     0
 40
0.0
  0
LTYPE
  5
181
330
189
100
AcDbSymbolTableRecord
100
AcDbLinetypeTableRecord
  2
353
 70
     0
  3
solid line
 72
    65
 73
     0
 40
0.0
  0
ENDTAB
  0
TABLE
  2
LAYER
  5
18A
102
{ACAD_XDICTIONARY
360
26A
102
}
330
0
100
AcDbSymbolTable
 70
     9
  0
LAYER
  5
10
102
{ACAD_XDICTIONARY
360
20D
102
}
330
18A
100
AcDbSymbolTableRecord
100
AcDbLayerTableRecord
  2
0
 70
     0
 62
     1
  6
CONTINUOUS
370
    -3
390
19C
347
1AE
  0
LAYER
  5
13
102
{ACAD_XDICTIONARY
360
20F
102
}
330
18A
100
AcDbSymbolTableRecord
100
AcDbLayerTableRecord
  2
Flurstuck NB
 70
     0
 62
     7
  6
CONTINUOUS
370
    -3
390
19C
347
1AE
  0
LAYER
  5
28
102
{ACAD_XDICTIONARY
360
211
102
}
330
18A
100
AcDbSymbolTableRecord
100
AcDbLayerTableRecord
  2
Flurstücke AB
 70
     0
 62
     7
  6
CONTINUOUS
370
    -3
390
19C
347
1AE
  0
LAYER
  5
36
102
{ACAD_XDICTIONARY
360
215
102
}
330
18A
100
AcDbSymbolTableRecord
100
AcDbLayerTableRecord
  2
Grenzpunkte
 70
     0
 62
     7
  6
CONTINUOUS
370
    -3
390
19C
347
1AE
  0
LAYER
  5
46
102
{ACAD_XDICTIONARY
360
217
102
}
330
18A
100
AcDbSymbolTableRecord
100
AcDbLayerTableRecord
  2
Num. Punkt PA 2 NB
 70
     0
 62
     7
  6
CONTINUOUS
370
    -3
390
19C
347
1AE
  0
LAYER
  5
70
102
{ACAD_XDICTIONARY
360
219
102
}
330
18A
100
AcDbSymbolTableRecord
100
AcDbLayerTableRecord
  2
Num. Punkt PA 3
 70
     0
 62
     7
  6
CONTINUOUS
370
    -3
390
19C
347
1AE
  0
LAYER
  5
FC
102
{ACAD_XDICTIONARY
360
21D
102
}
330
18A
100
AcDbSymbolTableRecord
100
AcDbLayerTableRecord
  2
Gebäude
 70
     0
 62
     7
  6
CONTINUOUS
370
    -3
390
19C
347
1AE
  0
LAYER
  5
159
102
{ACAD_XDICTIONARY
360
21F
102
}
330
18A
100
AcDbSymbolTableRecord
100
AcDbLayerTableRecord
  2
Topographie
 70
     0
 62
     7
  6
CONTINUOUS
370
    -3
390
19C
347
1AE
  0
LAYER
  5
2DC
330
18A
100
AcDbSymbolTableRecord
100
AcDbLayerTableRecord
  2
Defpoints
 70
     0
 62
     7
  6
CONTINUOUS
290
     0
370
    -3
390
19C
347
1AE
  0
ENDTAB
  0
TABLE
  2
STYLE
  5
18B
330
0
100
AcDbSymbolTable
 70
     5
  0
STYLE
  5
7
330
18B
100
AcDbSymbolTableRecord
100
AcDbTextStyleTableRecord
  2
Standard
 70
     0
 40
0.0
 41
1.0
 50
0.0
 71
     0
 42
1.0
  3
txt
  4

  0
STYLE
  5
8
330
18B
100
AcDbSymbolTableRecord
100
AcDbTextStyleTableRecord
  2
SIMPLEX
 70
     0
 40
0.0
 41
1.0
 50
0.0
 71
     0
 42
1.0
  3
SIMPLEX
  4

  0
STYLE
  5
8E
330
18B
100
AcDbSymbolTableRecord
100
AcDbTextStyleTableRecord
  2
1 Flurstücksnummer
 70
     0
 40
0.0
 41
1.0
 50
0.0
 71
     0
 42
1.25
  3
SIMPLEX
  4

  0
STYLE
  5
96
330
18B
100
AcDbSymbolTableRecord
100
AcDbTextStyleTableRecord
  2
1 Flurstücksnummer neu rot
 70
     0
 40
0.0
 41
1.0
 50
0.0
 71
     0
 42
1.25
  3
SIMPLEX
  4

  0
STYLE
  5
FD
330
18B
100
AcDbSymbolTableRecord
100
AcDbTextStyleTableRecord
  2
7700  Bemaßung
 70
     0
 40
0.0
 41
1.0
 50
0.0
 71
     0
 42
0.5
  3
SIMPLEX
  4

  0
ENDTAB
  0
TABLE
  2
VIEW
  5
18C
330
0
100
AcDbSymbolTable
 70
     0
  0
ENDTAB
  0
TABLE
  2
UCS
  5
18D
330
0
100
AcDbSymbolTable
 70
     0
  0
ENDTAB
  0
TABLE
  2
APPID
  5
18E
330
0
100
AcDbSymbolTable
 70
     7
  0
APPID
  5
2
330
18E
100
AcDbSymbolTableRecord
100
AcDbRegAppTableRecord
  2
ACAD
 70
     0
  0
APPID
  5
1EE
330
18E
100
AcDbSymbolTableRecord
100
AcDbRegAppTableRecord
  2
ACAD_MLEADERVER
 70
     0
  0
APPID
  5
1FE
330
18E
100
AcDbSymbolTableRecord
100
AcDbRegAppTableRecord
  2
AcMapDMDisplayStyleRegapp
 70
     0
  0
APPID
  5
205
330
18E
100
AcDbSymbolTableRecord
100
AcDbRegAppTableRecord
  2
ADE
 70
     0
  0
APPID
  5
208
330
18E
100
AcDbSymbolTableRecord
100
AcDbRegAppTableRecord
  2
MapGWS
 70
     0
  0
APPID
  5
20B
330
18E
100
AcDbSymbolTableRecord
100
AcDbRegAppTableRecord
  2
DCO15
 70
     0
  0
APPID
  5
2F7
330
18E
100
AcDbSymbolTableRecord
100
AcDbRegAppTableRecord
  2
ACAD_NAV_VCDISPLAY
 70
     0
  0
ENDTAB
  0
TABLE
  2
DIMSTYLE
  5
18F
330
0
100
AcDbSymbolTable
 70
     1
100
AcDbDimStyleTable
 71
     0
  0
DIMSTYLE
105
3
330
18F
100
AcDbSymbolTableRecord
100
AcDbDimStyleTableRecord
  2
STANDARD
 70
     0
340
7
  0
ENDTAB
  0
TABLE
  2
BLOCK_RECORD
  5
190
330
0
100
AcDbSymbolTable
 70
     7
  0
BLOCK_RECORD
  5
9
102
{ACAD_XDICTIONARY
360
2DE
102
}
330
190
100
AcDbSymbolTableRecord
100
AcDbBlockTableRecord
  2
*MODEL_SPACE
340
1F6
 70
     0
280
     1
281
     0
  0
BLOCK_RECORD
  5
C
330
190
100
AcDbSymbolTableRecord
100
AcDbBlockTableRecord
  2
*PAPER_SPACE
340
1F7
 70
     0
280
     1
281
     0
  0
BLOCK_RECORD
  5
17
330
190
100
AcDbSymbolTableRecord
100
AcDbBlockTableRecord
  2
GEOGRAF_TRAFO_POINT
340
0
102
{BLKREFS
331
1B
102
}
 70
     0
280
     1
281
     0
  0
BLOCK_RECORD
  5
22
330
190
100
AcDbSymbolTableRecord
100
AcDbBlockTableRecord
  2
S5
340
0
102
{BLKREFS
331
30
331
42
331
6D
331
6E
331
74
331
7B
331
7D
331
7F
331
82
331
8C
102
}
 70
     0
280
     1
281
     0
  0
BLOCK_RECORD
  5
31
330
190
100
AcDbSymbolTableRecord
100
AcDbBlockTableRecord
  2
S4
340
0
102
{BLKREFS
331
35
331
37
331
38
331
39
331
3A
331
3B
331
3C
331
3D
331
3E
331
3F
331
40
331
41
331
44
331
45
331
48
331
49
331
4A
331
4B
331
4D
331
4E
331
4F
331
50
331
51
331
52
331
53
331
54
331
55
331
56
331
57
331
58
331
59
331
5A
331
5B
331
5C
331
67
331
69
331
6A
331
6B
331
6C
102
}
 70
     0
280
     1
281
     0
  0
BLOCK_RECORD
  5
5D
330
190
100
AcDbSymbolTableRecord
100
AcDbBlockTableRecord
  2
S210
340
0
102
{BLKREFS
331
63
331
64
331
65
331
66
331
68
331
6F
331
71
331
72
331
73
102
}
 70
     0
280
     1
281
     0
  0
BLOCK_RECORD
  5
83
330
190
100
AcDbSymbolTableRecord
100
AcDbBlockTableRecord
  2
S200
340
0
102
{BLKREFS
331
89
102
}
 70
     0
280
     1
281
     0
  0
BLOCK_RECORD
  5
113
330
190
100
AcDbSymbolTableRecord
100
AcDbBlockTableRecord
  2
S108
340
0
102
{BLKREFS
331
119
331
11A
331
124
331
125
331
12A
331
12B
331
130
331
131
331
15A
331
15B
331
165
331
166
102
}
 70
     0
280
     1
281
     0
  0
BLOCK_RECORD
  5
168
330
190
100
AcDbSymbolTableRecord
100
AcDbBlockTableRecord
  2
S213
340
0
102
{BLKREFS
331
16C
331
16D
331
16E
331
16F
331
170
331
171
331
172
331
173
331
174
331
175
331
176
331
177
331
178
331
179
331
17A
331
17B
331
17C
331
17D
331
17E
331
17F
331
180
102
}
 70
     0
280
     1
281
     0
  0
ENDTAB
  0
ENDSEC
  0
SECTION
  2
BLOCKS
  0
BLOCK
  5
A
330
9
100
AcDbEntity
  8
0
 62
     0
100
AcDbBlockBegin
  2
*MODEL_SPACE
 70
     0
 10
0.0
 20
0.0
 30
0.0
  3
*MODEL_SPACE
  1

  0
ENDBLK
  5
B
330
9
100
AcDbEntity
  8
0
 62
     0
100
AcDbBlockEnd
  0
BLOCK
  5
D
330
C
100
AcDbEntity
 67
     1
  8
0
 62
     0
100
AcDbBlockBegin
  2
*PAPER_SPACE
 70
     0
 10
0.0
 20
0.0
 30
0.0
  3
*PAPER_SPACE
  1

  0
ENDBLK
  5
E
330
C
100
AcDbEntity
 67
     1
  8
0
 62
     0
100
AcDbBlockEnd
  0
BLOCK
  5
18
330
17
100
AcDbEntity
  8
0
 62
     0
100
AcDbBlockBegin
  2
GEOGRAF_TRAFO_POINT
 70
     0
 10
0.0
 20
0.0
 30
0.0
  3
GEOGRAF_TRAFO_POINT
  1

  0
POINT
  5
19
330
17
100
AcDbEntity
  8
0
 62
     7
 60
     1
100
AcDbPoint
 10
0.0
 20
0.0
 30
0.0
  0
ENDBLK
  5
1A
330
17
100
AcDbEntity
  8
0
 62
     0
100
AcDbBlockEnd
  0
BLOCK
  5
23
330
22
100
AcDbEntity
  8
0
 62
     0
100
AcDbBlockBegin
  2
S5
 70
     0
 10
0.0
 20
0.0
 30
0.0
  3
S5
  1

  0
LWPOLYLINE
  5
24
330
22
100
AcDbEntity
  8
0
 62
     0
370
    -2
100
AcDbPolyline
 90
        2
 70
     1
 43
0.0
 10
0.0
 20
0.25
 42
-1.0
 10
0.0
 20
-0.25
 42
-1.0
  0
LWPOLYLINE
  5
25
330
22
100
AcDbEntity
  8
0
 62
     0
370
    -2
100
AcDbPolyline
 90
        2
 70
     1
 43
0.0
 10
0.0
 20
0.5
 42
-1.0
 10
0.0
 20
-0.5
 42
-1.0
  0
ENDBLK
  5
26
330
22
100
AcDbEntity
  8
0
 62
     0
100
AcDbBlockEnd
  0
BLOCK
  5
32
330
31
100
AcDbEntity
  8
0
 62
     0
100
AcDbBlockBegin
  2
S4
 70
     0
 10
0.0
 20
0.0
 30
0.0
  3
S4
  1

  0
LWPOLYLINE
  5
33
330
31
100
AcDbEntity
  8
0
 62
     0
370
    -2
100
AcDbPolyline
 90
        2
 70
     1
 43
0.0
 10
0.0
 20
0.5
 42
-1.0
 10
0.0
 20
-0.5
 42
-1.0
  0
ENDBLK
  5
34
330
31
100
AcDbEntity
  8
0
 62
     0
100
AcDbBlockEnd
  0
BLOCK
  5
5E
330
5D
100
AcDbEntity
  8
0
 62
     0
100
AcDbBlockBegin
  2
S210
 70
     0
 10
0.0
 20
0.0
 30
0.0
  3
S210
  1

  0
LWPOLYLINE
  5
5F
330
5D
100
AcDbEntity
  8
0
 62
     0
370
    -2
100
AcDbPolyline
 90
        2
 70
     1
 43
0.0
 10
0.0
 20
0.005
 42
-1.0
 10
0.0
 20
-0.005
 42
-1.0
  0
LWPOLYLINE
  5
60
330
5D
100
AcDbEntity
  8
0
 62
     7
420
 16777215
100
AcDbPolyline
 90
        2
 70
     1
 43
0.0
 10
0.0
 20
0.125
 42
-1.0
 10
0.0
 20
-0.125
 42
-1.0
  0
LWPOLYLINE
  5
61
330
5D
100
AcDbEntity
  8
0
 62
     0
370
    -2
100
AcDbPolyline
 90
        2
 70
     1
 43
0.0
 10
0.0
 20
0.055
 42
-1.0
 10
0.0
 20
-0.055
 42
-1.0
  0
ENDBLK
  5
62
330
5D
100
AcDbEntity
  8
0
 62
     0
100
AcDbBlockEnd
  0
BLOCK
  5
84
330
83
100
AcDbEntity
  8
0
 62
     0
100
AcDbBlockBegin
  2
S200
 70
     0
 10
0.0
 20
0.0
 30
0.0
  3
S200
  1

  0
HATCH
  5
85
330
83
100
AcDbEntity
  8
0
 62
     0
370
    -2
100
AcDbHatch
 10
0.0
 20
0.0
 30
0.0
210
0.0
220
0.0
230
1.0
  2
SOLID
 70
     1
 71
     0
 91
        1
 92
        2
 72
     0
 73
     1
 93
        4
 10
-0.05
 20
-0.1
 10
0.0
 20
0.4
 10
0.05
 20
-0.1
 10
0.0
 20
0.0
 97
        0
 75
     0
 76
     1
 98
        1
 10
0.0
 20
0.1
450
        0
451
        0
460
0.0
461
0.0
452
        0
462
0.0
453
        0
470

  0
LWPOLYLINE
  5
86
330
83
100
AcDbEntity
  8
0
 62
     0
370
    -2
100
AcDbPolyline
 90
        2
 70
     0
 43
0.0
 10
0.0
 20
0.0
 10
0.0
 20
-0.5
  0
LWPOLYLINE
  5
87
330
83
100
AcDbEntity
  8
0
 62
     0
370
    -2
100
AcDbPolyline
 90
        2
 70
     0
 43
0.0
 10
0.0
 20
0.4
 10
0.0
 20
0.5
  0
ENDBLK
  5
88
330
83
100
AcDbEntity
  8
0
 62
     0
100
AcDbBlockEnd
  0
BLOCK
  5
114
330
113
100
AcDbEntity
  8
0
 62
     0
100
AcDbBlockBegin
  2
S108
 70
     0
 10
0.0
 20
-0.05
 30
0.0
  3
S108
  1

  0
HATCH
  5
115
330
113
100
AcDbEntity
  8
0
 62
     0
370
    -2
100
AcDbHatch
 10
0.0
 20
0.0
 30
0.0
210
0.0
220
0.0
230
1.0
  2
SOLID
 70
     1
 71
     0
 91
        3
 92
        2
 72
     1
 73
     1
 93
        2
 10
-0.075
 20
0.005
 42
-1.0
 10
-0.075
 20
-0.005
 42
-1.0
 97
        0
 92
        2
 72
     1
 73
     1
 93
        2
 10
0.0
 20
0.005
 42
-1.0
 10
0.0
 20
-0.005
 42
-1.0
 97
        0
 92
        2
 72
     1
 73
     1
 93
        2
 10
0.075
 20
0.005
 42
-1.0
 10
0.075
 20
-0.005
 42
-1.0
 97
        0
 75
     0
 76
     1
 98
        3
 10
-0.075
 20
0.0
 10
0.0
 20
0.0
 10
0.075
 20
0.0
450
        0
451
        0
460
0.0
461
0.0
452
        0
462
0.0
453
        0
470

  0
LWPOLYLINE
  5
116
330
113
100
AcDbEntity
  8
0
 62
     0
370
    -2
100
AcDbPolyline
 90
        2
 70
     0
 43
0.0
 10
-0.15
 20
0.0
 10
-0.35
 20
0.0
  0
LWPOLYLINE
  5
117
330
113
100
AcDbEntity
  8
0
 62
     0
370
    -2
100
AcDbPolyline
 90
        2
 70
     0
 43
0.0
 10
0.15
 20
0.0
 10
0.35
 20
0.0
  0
ENDBLK
  5
118
330
113
100
AcDbEntity
  8
0
 62
     0
100
AcDbBlockEnd
  0
BLOCK
  5
169
330
168
100
AcDbEntity
  8
0
 62
     0
100
AcDbBlockBegin
  2
S213
 70
     0
 10
0.0
 20
0.005
 30
0.0
  3
S213
  1

  0
LWPOLYLINE
  5
16A
330
168
100
AcDbEntity
  8
0
 62
     0
370
    -2
100
AcDbPolyline
 90
        3
 70
     0
 43
0.0
 10
0.5
 20
-0.5
 10
0.0
 20
0.0
 10
-0.5
 20
-0.5
  0
ENDBLK
  5
16B
330
168
100
AcDbEntity
  8
0
 62
     0
100
AcDbBlockEnd
  0
ENDSEC
  0
SECTION
  2
ENTITIES
  0
INSERT
  5
1B
330
9
100
AcDbEntity
  8
0
 62
     7
 60
     1
100
AcDbBlockReference
 66
     1
  2
GEOGRAF_TRAFO_POINT
 10
4442257.153987001
 20
5952158.948845
 30
0.0
  0
ATTRIB
  5
1C
330
1B
100
AcDbEntity
  8
0
 62
     7
 60
     1
100
AcDbText
 10
4442257.153987001
 20
5952158.948845
 30
0.0
 40
1.0
  1
{8C2227B8-2492-49F9-951A-7DE7BDAAC94F}
100
AcDbAttribute
280
     0
  2
A.0
 70
     0
280
     0
  0
ATTRIB
  5
1D
330
1B
100
AcDbEntity
  8
0
 62
     7
 60
     1
100
AcDbText
 10
4442510.81394
 20
5952158.948845
 30
0.0
 40
1.0
  1
{8C2227B8-2492-49F9-951A-7DE7BDAAC94F}
100
AcDbAttribute
280
     0
  2
A.1
 70
     0
280
     0
  0
ATTRIB
  5
1E
330
1B
100
AcDbEntity
  8
0
 62
     7
 60
     1
100
AcDbText
 10
4442510.81394
 20
5952427.992602
 30
0.0
 40
1.0
  1
{8C2227B8-2492-49F9-951A-7DE7BDAAC94F}
100
AcDbAttribute
280
     0
  2
A.2
 70
     0
280
     0
  0
ATTRIB
  5
1F
330
1B
100
AcDbEntity
  8
0
 62
     7
 60
     1
100
AcDbText
 10
4442257.153987001
 20
5952427.992602
 30
0.0
 40
1.0
  1
{8C2227B8-2492-49F9-951A-7DE7BDAAC94F}
100
AcDbAttribute
280
     0
  2
A.3
 70
     0
280
     0
  0
SEQEND
  5
20
330
1B
100
AcDbEntity
  8
0
 60
     1
  0
INSERT
  5
30
330
9
100
AcDbEntity
  8
Flurstücke AB
100
AcDbBlockReference
  2
S5
 10
4442365.633999999
 20
5952224.574
 30
0.0
 41
1.5
 42
1.5
 43
1.5
  0
INSERT
  5
35
330
9
100
AcDbEntity
  8
Grenzpunkte
370
    18
100
AcDbBlockReference
  2
S4
 10
4442341.095999999
 20
5952243.576
 30
0.0
 41
0.800000011921
 42
0.800000011921
 43
0.800000011921
  0
INSERT
  5
37
330
9
100
AcDbEntity
  8
Grenzpunkte
370
    18
100
AcDbBlockReference
  2
S4
 10
4442357.072
 20
5952230.914
 30
0.0
 41
0.5
 42
0.5
 43
0.5
  0
INSERT
  5
38
330
9
100
AcDbEntity
  8
Grenzpunkte
370
    18
100
AcDbBlockReference
  2
S4
 10
4442441.234
 20
5952204.109
 30
0.0
 41
0.800000011921
 42
0.800000011921
 43
0.800000011921
  0
INSERT
  5
39
330
9
100
AcDbEntity
  8
Grenzpunkte
370
    18
100
AcDbBlockReference
  2
S4
 10
4442372.345999999
 20
5952318.127
 30
0.0
 41
0.800000011921
 42
0.800000011921
 43
0.800000011921
  0
INSERT
  5
3A
330
9
100
AcDbEntity
  8
Grenzpunkte
370
    18
100
AcDbBlockReference
  2
S4
 10
4442384.092
 20
5952298.64
 30
0.0
 41
0.800000011921
 42
0.800000011921
 43
0.800000011921
  0
INSERT
  5
3B
330
9
100
AcDbEntity
  8
Grenzpunkte
370
    18
100
AcDbBlockReference
  2
S4
 10
4442409.005
 20
5952257.452
 30
0.0
 41
0.800000011921
 42
0.800000011921
 43
0.800000011921
  0
INSERT
  5
3C
330
9
100
AcDbEntity
  8
Grenzpunkte
370
    18
100
AcDbBlockReference
  2
S4
 10
4442365.854
 20
5952225.893000001
 30
0.0
 41
0.800000011921
 42
0.800000011921
 43
0.800000011921
  0
INSERT
  5
3D
330
9
100
AcDbEntity
  8
Grenzpunkte
370
    18
100
AcDbBlockReference
  2
S4
 10
4442351.154
 20
5952239.091
 30
0.0
 41
0.800000011921
 42
0.800000011921
 43
0.800000011921
  0
INSERT
  5
3E
330
9
100
AcDbEntity
  8
Grenzpunkte
370
    18
100
AcDbBlockReference
  2
S4
 10
4442343.042
 20
5952246.334999999
 30
0.0
 41
0.800000011921
 42
0.800000011921
 43
0.800000011921
  0
INSERT
  5
3F
330
9
100
AcDbEntity
  8
Grenzpunkte
370
    18
100
AcDbBlockReference
  2
S4
 10
4442355.261
 20
5952258.312
 30
0.0
 41
0.800000011921
 42
0.800000011921
 43
0.800000011921
  0
INSERT
  5
40
330
9
100
AcDbEntity
  8
Grenzpunkte
370
    18
100
AcDbBlockReference
  2
S4
 10
4442349.496
 20
5952269.274
 30
0.0
 41
0.800000011921
 42
0.800000011921
 43
0.800000011921
  0
INSERT
  5
41
330
9
100
AcDbEntity
  8
Grenzpunkte
370
    18
100
AcDbBlockReference
  2
S4
 10
4442316.498999999
 20
5952373.816
 30
0.0
 41
0.800000011921
 42
0.800000011921
 43
0.800000011921
  0
INSERT
  5
42
330
9
100
AcDbEntity
  8
Flurstücke AB
100
AcDbBlockReference
  2
S5
 10
4442330.871
 20
5952359.129999999
 30
0.0
 41
1.5
 42
1.5
 43
1.5
  0
INSERT
  5
44
330
9
100
AcDbEntity
  8
Grenzpunkte
370
    18
100
AcDbBlockReference
  2
S4
 10
4442268.182
 20
5952353.280000001
 30
0.0
 41
0.800000011921
 42
0.800000011921
 43
0.800000011921
  0
INSERT
  5
45
330
9
100
AcDbEntity
  8
Num. Punkt PA 2 NB
370
    18
100
AcDbBlockReference
  2
S4
 10
4442283.985000001
 20
5952358.280000001
 30
0.0
 41
0.800000011921
 42
0.800000011921
 43
0.800000011921
  0
INSERT
  5
48
330
9
100
AcDbEntity
  8
Grenzpunkte
370
    18
100
AcDbBlockReference
  2
S4
 10
4442270.09
 20
5952353.886
 30
0.0
 41
0.800000011921
 42
0.800000011921
 43
0.800000011921
  0
INSERT
  5
49
330
9
100
AcDbEntity
  8
Grenzpunkte
370
    18
100
AcDbBlockReference
  2
S4
 10
4442400.293
 20
5952192.254999999
 30
0.0
 41
0.800000011921
 42
0.800000011921
 43
0.800000011921
  0
INSERT
  5
4A
330
9
100
AcDbEntity
  8
Grenzpunkte
370
    18
100
AcDbBlockReference
  2
S4
 10
4442448.923
 20
5952191.468000001
 30
0.0
 41
0.800000011921
 42
0.800000011921
 43
0.800000011921
  0
INSERT
  5
4B
330
9
100
AcDbEntity
  8
Grenzpunkte
370
    18
100
AcDbBlockReference
  2
S4
 10
4442421.339
 20
5952174.263
 30
0.0
 41
0.800000011921
 42
0.800000011921
 43
0.800000011921
  0
INSERT
  5
4D
330
9
100
AcDbEntity
  8
Num. Punkt PA 2 NB
370
    18
100
AcDbBlockReference
  2
S4
 10
4442350.857
 20
5952335.352
 30
0.0
 41
0.800000011921
 42
0.800000011921
 43
0.800000011921
  0
INSERT
  5
4E
330
9
100
AcDbEntity
  8
Num. Punkt PA 2 NB
370
    18
100
AcDbBlockReference
  2
S4
 10
4442411.995
 20
5952187.439
 30
0.0
 41
0.800000011921
 42
0.800000011921
 43
0.800000011921
  0
INSERT
  5
4F
330
9
100
AcDbEntity
  8
Num. Punkt PA 2 NB
370
    18
100
AcDbBlockReference
  2
S4
 10
4442424.32
 20
5952176.122
 30
0.0
 41
0.800000011921
 42
0.800000011921
 43
0.800000011921
  0
INSERT
  5
50
330
9
100
AcDbEntity
  8
Num. Punkt PA 2 NB
370
    18
100
AcDbBlockReference
  2
S4
 10
4442271.799
 20
5952335.945
 30
0.0
 41
0.800000011921
 42
0.800000011921
 43
0.800000011921
  0
INSERT
  5
51
330
9
100
AcDbEntity
  8
Num. Punkt PA 2 NB
370
    18
100
AcDbBlockReference
  2
S4
 10
4442277.079
 20
5952318.989
 30
0.0
 41
0.800000011921
 42
0.800000011921
 43
0.800000011921
  0
INSERT
  5
52
330
9
100
AcDbEntity
  8
Num. Punkt PA 2 NB
370
    18
100
AcDbBlockReference
  2
S4
 10
4442283.529
 20
5952306.303
 30
0.0
 41
0.800000011921
 42
0.800000011921
 43
0.800000011921
  0
INSERT
  5
53
330
9
100
AcDbEntity
  8
Num. Punkt PA 2 NB
370
    18
100
AcDbBlockReference
  2
S4
 10
4442287.654
 20
5952301.106
 30
0.0
 41
0.800000011921
 42
0.800000011921
 43
0.800000011921
  0
INSERT
  5
54
330
9
100
AcDbEntity
  8
Num. Punkt PA 2 NB
370
    18
100
AcDbBlockReference
  2
S4
 10
4442297.178999999
 20
5952291.224
 30
0.0
 41
0.800000011921
 42
0.800000011921
 43
0.800000011921
  0
INSERT
  5
55
330
9
100
AcDbEntity
  8
Num. Punkt PA 2 NB
370
    18
100
AcDbBlockReference
  2
S4
 10
4442351.676
 20
5952334.696
 30
0.0
 41
0.800000011921
 42
0.800000011921
 43
0.800000011921
  0
INSERT
  5
56
330
9
100
AcDbEntity
  8
Num. Punkt PA 2 NB
370
    18
100
AcDbBlockReference
  2
S4
 10
4442314.794
 20
5952331.264
 30
0.0
 41
0.800000011921
 42
0.800000011921
 43
0.800000011921
  0
INSERT
  5
57
330
9
100
AcDbEntity
  8
Num. Punkt PA 2 NB
370
    18
100
AcDbBlockReference
  2
S4
 10
4442297.745
 20
5952364.747999999
 30
0.0
 41
0.800000011921
 42
0.800000011921
 43
0.800000011921
  0
INSERT
  5
58
330
9
100
AcDbEntity
  8
Num. Punkt PA 2 NB
370
    18
100
AcDbBlockReference
  2
S4
 10
4442306.269999999
 20
5952348.006000001
 30
0.0
 41
0.800000011921
 42
0.800000011921
 43
0.800000011921
  0
INSERT
  5
59
330
9
100
AcDbEntity
  8
Num. Punkt PA 2 NB
370
    18
100
AcDbBlockReference
  2
S4
 10
4442274.659
 20
5952325.833999999
 30
0.0
 41
0.800000011921
 42
0.800000011921
 43
0.800000011921
  0
INSERT
  5
5A
330
9
100
AcDbEntity
  8
Num. Punkt PA 2 NB
370
    18
100
AcDbBlockReference
  2
S4
 10
4442321.619
 20
5952358.924
 30
0.0
 41
0.800000011921
 42
0.800000011921
 43
0.800000011921
  0
INSERT
  5
5B
330
9
100
AcDbEntity
  8
Num. Punkt PA 2 NB
370
    18
100
AcDbBlockReference
  2
S4
 10
4442317.179999999
 20
5952363.585
 30
0.0
 41
0.800000011921
 42
0.800000011921
 43
0.800000011921
  0
INSERT
  5
5C
330
9
100
AcDbEntity
  8
Num. Punkt PA 2 NB
370
    18
100
AcDbBlockReference
  2
S4
 10
4442325.73
 20
5952363.012000001
 30
0.0
 41
0.800000011921
 42
0.800000011921
 43
0.800000011921
  0
INSERT
  5
63
330
9
100
AcDbEntity
  8
Grenzpunkte
370
    35
100
AcDbBlockReference
  2
S210
 10
4442291.302
 20
5952297.321999999
 30
0.0
  0
INSERT
  5
64
330
9
100
AcDbEntity
  8
Grenzpunkte
370
    35
100
AcDbBlockReference
  2
S210
 10
4442285.717
 20
5952308.05
 30
0.0
  0
INSERT
  5
65
330
9
100
AcDbEntity
  8
Num. Punkt PA 2 NB
370
    18
100
AcDbBlockReference
  2
S210
 10
4442273.548999999
 20
5952329.76
 30
0.0
 41
0.5
 42
0.5
 43
0.5
  0
INSERT
  5
66
330
9
100
AcDbEntity
  8
Num. Punkt PA 2 NB
370
    18
100
AcDbBlockReference
  2
S210
 10
4442275.46
 20
5952326.396
 30
0.0
 41
0.5
 42
0.5
 43
0.5
  0
INSERT
  5
67
330
9
100
AcDbEntity
  8
Num. Punkt PA 2 NB
370
    18
100
AcDbBlockReference
  2
S4
 10
4442321.997
 20
5952368.198
 30
0.0
 41
0.800000011921
 42
0.800000011921
 43
0.800000011921
  0
INSERT
  5
68
330
9
100
AcDbEntity
  8
Num. Punkt PA 2 NB
370
    18
100
AcDbBlockReference
  2
S210
 10
4442326.41
 20
5952363.688
 30
0.0
 41
0.5
 42
0.5
 43
0.5
  0
INSERT
  5
69
330
9
100
AcDbEntity
  8
Grenzpunkte
370
    18
100
AcDbBlockReference
  2
S4
 10
4442270.309
 20
5952335.462
 30
0.0
 41
0.800000011921
 42
0.800000011921
 43
0.800000011921
  0
INSERT
  5
6A
330
9
100
AcDbEntity
  8
Grenzpunkte
370
    18
100
AcDbBlockReference
  2
S4
 10
4442283.900999999
 20
5952311.536999999
 30
0.0
 41
0.800000011921
 42
0.800000011921
 43
0.800000011921
  0
INSERT
  5
6B
330
9
100
AcDbEntity
  8
Grenzpunkte
370
    18
100
AcDbBlockReference
  2
S4
 10
4442295.128999999
 20
5952289.97
 30
0.0
 41
0.800000011921
 42
0.800000011921
 43
0.800000011921
  0
INSERT
  5
6C
330
9
100
AcDbEntity
  8
Grenzpunkte
370
    18
100
AcDbBlockReference
  2
S4
 10
4442306.677
 20
5952368.947
 30
0.0
 41
0.800000011921
 42
0.800000011921
 43
0.800000011921
  0
INSERT
  5
6D
330
9
100
AcDbEntity
  8
Flurstücke AB
100
AcDbBlockReference
  2
S5
 10
4442379.843999999
 20
5952236.178
 30
0.0
 41
1.5
 42
1.5
 43
1.5
  0
INSERT
  5
6E
330
9
100
AcDbEntity
  8
Flurstücke AB
100
AcDbBlockReference
  2
S5
 10
4442382.627
 20
5952238.304999999
 30
0.0
 41
1.5
 42
1.5
 43
1.5
  0
INSERT
  5
6F
330
9
100
AcDbEntity
  8
Num. Punkt PA 3
370
    18
100
AcDbBlockReference
  2
S210
 10
4442323.167
 20
5952363.133000001
 30
0.0
 41
0.5
 42
0.5
 43
0.5
  0
INSERT
  5
71
330
9
100
AcDbEntity
  8
Num. Punkt PA 3
370
    18
100
AcDbBlockReference
  2
S210
 10
4442321.663999999
 20
5952361.732
 30
0.0
 41
0.5
 42
0.5
 43
0.5
  0
INSERT
  5
72
330
9
100
AcDbEntity
  8
Num. Punkt PA 3
370
    18
100
AcDbBlockReference
  2
S210
 10
4442319.968999999
 20
5952363.519
 30
0.0
 41
0.5
 42
0.5
 43
0.5
  0
INSERT
  5
73
330
9
100
AcDbEntity
  8
Num. Punkt PA 3
370
    18
100
AcDbBlockReference
  2
S210
 10
4442321.458
 20
5952364.948
 30
0.0
 41
0.5
 42
0.5
 43
0.5
  0
INSERT
  5
74
330
9
100
AcDbEntity
  8
Flurstücke AB
100
AcDbBlockReference
  2
S5
 10
4442317.272
 20
5952372.082000001
 30
0.0
 41
1.5
 42
1.5
 43
1.5
  0
INSERT
  5
7B
330
9
100
AcDbEntity
  8
Num. Punkt PA 2 NB
100
AcDbBlockReference
  2
S5
 10
4442362.85715
 20
5952250.562366999
 30
0.0
 41
1.5
 42
1.5
 43
1.5
  0
INSERT
  5
7D
330
9
100
AcDbEntity
  8
Flurstücke AB
100
AcDbBlockReference
  2
S5
 10
4442386.673166001
 20
5952294.35776
 30
0.0
 41
1.5
 42
1.5
 43
1.5
  0
INSERT
  5
7F
330
9
100
AcDbEntity
  8
Flurstücke AB
100
AcDbBlockReference
  2
S5
 10
4442406.419366999
 20
5952261.731544
 30
0.0
 41
1.5
 42
1.5
 43
1.5
  0
INSERT
  5
82
330
9
100
AcDbEntity
  8
Flurstücke AB
100
AcDbBlockReference
  2
S5
 10
4442313.107344
 20
5952380.13622
 30
0.0
 41
1.5
 42
1.5
 43
1.5
  0
INSERT
  5
89
330
9
100
AcDbEntity
  8
Flurstücke AB
370
    25
100
AcDbBlockReference
  2
S200
 10
4442488.601606999
 20
5952366.799825999
 30
0.0
 41
37.0
 42
37.0
 43
37.0
  0
INSERT
  5
8C
330
9
100
AcDbEntity
  8
Flurstücke AB
100
AcDbBlockReference
  2
S5
 10
4442358.374212999
 20
5952341.290017999
 30
0.0
 41
1.5
 42
1.5
 43
1.5
  0
MTEXT
  5
95
330
9
100
AcDbEntity
  8
Flurstücke AB
370
    25
100
AcDbMText
 10
4442266.106183
 20
5952346.394321
 30
0.0
 40
1.25
 41
0.0
 46
0.0
 71
     8
 72
     1
  1
\Q17;\S24/8;
  7
1 Flurstücksnummer neu rot
 73
     1
 44
0.69
  0
LINE
  5
97
330
9
100
AcDbEntity
  8
Flurstücke AB
  6
Continuous
370
    25
100
AcDbLine
 10
4442267.160801
 20
5952348.056821
 30
0.0
 11
4442269.825523999
 21
5952346.5546
 31
0.0
  0
LINE
  5
98
330
9
100
AcDbEntity
  8
Flurstücke AB
  6
Continuous
370
    25
100
AcDbLine
 10
4442268.790717
 20
5952346.755313
 30
0.0
 11
4442269.825523999
 21
5952346.5546
 31
0.0
  0
LINE
  5
99
330
9
100
AcDbEntity
  8
Flurstücke AB
  6
Continuous
370
    25
100
AcDbLine
 10
4442269.825523999
 20
5952346.5546
 30
0.0
 11
4442269.118107001
 21
5952347.336054
 31
0.0
  0
MTEXT
  5
9A
330
9
100
AcDbEntity
  8
Flurstücke AB
370
    25
100
AcDbMText
 10
4442287.018909206
 20
5952346.492067547
 30
0.0
 40
1.25
 41
0.0
 46
0.0
 71
     8
 72
     1
  1
\Q17;\S24/9;
  7
1 Flurstücksnummer neu rot
 73
     1
 44
0.69
  0
MTEXT
  5
9B
330
9
100
AcDbEntity
  8
Flurstücke AB
370
    25
100
AcDbMText
 10
4442298.372533
 20
5952329.026343
 30
0.0
 40
1.25
 41
0.0
 46
0.0
 71
     8
 72
     1
  1
\Q17;\S24/11;
  7
1 Flurstücksnummer neu rot
 73
     1
 44
0.69
  0
MTEXT
  5
9C
330
9
100
AcDbEntity
  8
Flurstücke AB
370
    25
100
AcDbMText
 10
4442325.973564414
 20
5952357.452923872
 30
0.0
 40
1.25
 41
0.0
 46
0.0
 71
     8
 72
     1
  1
\Q17;\S24/10;
  7
1 Flurstücksnummer neu rot
 73
     1
 44
0.69
  0
LINE
  5
9D
330
9
100
AcDbEntity
  8
Flurstücke AB
  6
Continuous
370
    25
100
AcDbLine
 10
4442325.065556586
 20
5952360.346126639
 30
0.0
 11
4442323.474396532
 21
5952362.465657047
 31
0.0
  0
MTEXT
  5
A0
330
9
100
AcDbEntity
  8
Flurstücke AB
370
    25
100
AcDbMText
 10
4442275.061989
 20
5952313.474055999
 30
0.0
 40
1.25
 41
0.0
 46
0.0
 71
     8
 72
     1
  1
\Q17;\S21/10;
  7
1 Flurstücksnummer neu rot
 73
     1
 44
0.69
  0
LINE
  5
A1
330
9
100
AcDbEntity
  8
Flurstücke AB
  6
Continuous
370
    25
100
AcDbLine
 10
4442275.991607
 20
5952315.136555999
 30
0.0
 11
4442280.314536
 21
5952314.445137001
 31
0.0
  0
LINE
  5
A2
330
9
100
AcDbEntity
  8
Flurstücke AB
  6
Continuous
370
    25
100
AcDbLine
 10
4442279.274441
 20
5952314.273922
 30
0.0
 11
4442280.314536
 21
5952314.445137001
 31
0.0
  0
LINE
  5
A3
330
9
100
AcDbEntity
  8
Flurstücke AB
  6
Continuous
370
    25
100
AcDbLine
 10
4442280.314536
 20
5952314.445137001
 30
0.0
 11
4442279.379730999
 21
5952314.932221001
 31
0.0
  0
MTEXT
  5
A4
330
9
100
AcDbEntity
  8
Flurstücke AB
370
    25
100
AcDbMText
 10
4442271.469448
 20
5952325.416735
 30
0.0
 40
1.25
 41
0.0
 46
0.0
 71
     8
 72
     1
  1
\Q17;\S21/9;
  7
1 Flurstücksnummer neu rot
 73
     1
 44
0.69
  0
LINE
  5
A5
330
9
100
AcDbEntity
  8
Flurstücke AB
  6
Continuous
370
    25
100
AcDbLine
 10
4442272.399066
 20
5952327.079235
 30
0.0
 11
4442274.516932
 21
5952327.143697
 31
0.0
  0
LINE
  5
A6
330
9
100
AcDbEntity
  8
Flurstücke AB
  6
Continuous
370
    25
100
AcDbLine
 10
4442273.527536
 20
5952326.780094999
 30
0.0
 11
4442274.516932
 21
5952327.143697
 31
0.0
  0
LINE
  5
A7
330
9
100
AcDbEntity
  8
Flurstücke AB
  6
Continuous
370
    25
100
AcDbLine
 10
4442274.516932
 20
5952327.143697
 30
0.0
 11
4442273.507253999
 21
5952327.446452999
 31
0.0
  0
MTEXT
  5
AC
330
9
100
AcDbEntity
  8
Flurstücke AB
370
    25
100
AcDbMText
 10
4442282.889684146
 20
5952301.460982808
 30
0.0
 40
1.25
 41
0.0
 46
0.0
 71
     8
 72
     1
  1
\Q17;\S21/11;
  7
1 Flurstücksnummer neu rot
 73
     1
 44
0.69
  0
LINE
  5
AD
330
9
100
AcDbEntity
  8
Flurstücke AB
  6
Continuous
370
    25
100
AcDbLine
 10
4442284.327581124
 20
5952303.467818366
 30
0.0
 11
4442286.404362
 21
5952305.414826001
 31
0.0
  0
LINE
  5
AE
330
9
100
AcDbEntity
  8
Flurstücke AB
  6
Continuous
370
    25
100
AcDbLine
 10
4442285.911993198
 20
5952304.482794393
 30
0.0
 11
4442286.404362
 21
5952305.414826001
 31
0.0
  0
LINE
  5
AF
330
9
100
AcDbEntity
  8
Flurstücke AB
  6
Continuous
370
    25
100
AcDbLine
 10
4442286.404362
 20
5952305.414826001
 30
0.0
 11
4442285.451247993
 21
5952304.964621996
 31
0.0
  0
MTEXT
  5
B0
330
9
100
AcDbEntity
  8
Flurstücke AB
370
    25
100
AcDbMText
 10
4442311.50509455
 20
5952268.556905834
 30
0.0
 40
1.25
 41
0.0
 46
0.0
 71
     8
 72
     1
  1
\Q17;\S24/14;
  7
1 Flurstücksnummer neu rot
 73
     1
 44
0.69
  0
LINE
  5
B1
330
9
100
AcDbEntity
  8
Flurstücke AB
  6
Continuous
370
    25
100
AcDbLine
 10
4442312.779869999
 20
5952270.327504
 30
0.0
 11
4442314.976751999
 21
5952271.11485
 31
0.0
  0
LINE
  5
B2
330
9
100
AcDbEntity
  8
Flurstücke AB
  6
Continuous
370
    25
100
AcDbLine
 10
4442314.147843
 20
5952270.463680999
 30
0.0
 11
4442314.976751999
 21
5952271.11485
 31
0.0
  0
LINE
  5
B3
330
9
100
AcDbEntity
  8
Flurstücke AB
  6
Continuous
370
    25
100
AcDbLine
 10
4442314.976751999
 20
5952271.11485
 30
0.0
 11
4442313.922923
 21
5952271.09126
 31
0.0
  0
MTEXT
  5
B6
330
9
100
AcDbEntity
  8
Flurstücke AB
370
    25
100
AcDbMText
 10
4442333.61219
 20
5952310.599869999
 30
0.0
 40
1.25
 41
0.0
 46
0.0
 71
     8
 72
     1
  1
\Q17;\S24/13;
  7
1 Flurstücksnummer neu rot
 73
     1
 44
0.69
  0
MTEXT
  5
B9
330
9
100
AcDbEntity
  8
Flurstücke AB
370
    25
100
AcDbMText
 10
4442410.189644
 20
5952214.860080999
 30
0.0
 40
1.25
 41
0.0
 46
0.0
 71
     8
 72
     1
  1
\Q17;\S24/15;
  7
1 Flurstücksnummer neu rot
 73
     1
 44
0.69
  0
TEXT
  5
C2
330
9
100
AcDbEntity
  8
Flurstücke AB
370
    25
100
AcDbText
 10
4442344.520440571
 20
5952358.899342999
 30
0.0
 40
1.25
  1
Flur 9
 51
16.701719728063
  7
1 Flurstücksnummer
 72
     1
 11
4442347.199012
 21
5952358.899342999
 31
0.0
100
AcDbText
  0
TEXT
  5
FB
330
9
100
AcDbEntity
  8
Gebäude
370
    18
100
AcDbText
 10
4442314.504447714
 20
5952366.061432001
 30
0.0
 40
1.0
  1
Trafo
  7
7700  Bemaßung
 72
     1
 11
4442316.290162
 21
5952366.561432
 31
0.0
100
AcDbText
 73
     2
  0
LINE
  5
FE
330
9
100
AcDbEntity
  8
Gebäude
  6
Continuous
370
    18
100
AcDbLine
 10
4442317.508527
 20
5952365.861432
 30
0.0
 11
4442321.392715
 21
5952363.629809
 31
0.0
  0
LINE
  5
102
330
9
100
AcDbEntity
  8
Flurstuck NB
  6
9233
370
    35
100
AcDbLine
 10
4442274.659
 20
5952325.833999999
 30
0.0
 11
4442273.548999999
 21
5952329.76
 31
0.0
  0
LINE
  5
104
330
9
100
AcDbEntity
  8
Flurstücke AB
  6
1
370
    18
100
AcDbLine
 10
4442273.548999999
 20
5952329.76
 30
0.0
 11
4442275.46
 21
5952326.396
 31
0.0
  0
LINE
  5
105
330
9
100
AcDbEntity
  8
Flurstuck NB
  6
9233
370
    35
100
AcDbLine
 10
4442275.46
 20
5952326.396
 30
0.0
 11
4442274.659
 21
5952325.833999999
 31
0.0
  0
LINE
  5
106
330
9
100
AcDbEntity
  8
Flurstuck NB
  6
9233
370
    35
100
AcDbLine
 10
4442283.529
 20
5952306.303
 30
0.0
 11
4442277.079
 21
5952318.989
 31
0.0
  0
LINE
  5
107
330
9
100
AcDbEntity
  8
Flurstuck NB
  6
9233
370
    35
100
AcDbLine
 10
4442277.079
 20
5952318.989
 30
0.0
 11
4442274.659
 21
5952325.833999999
 31
0.0
  0
LINE
  5
108
330
9
100
AcDbEntity
  8
Flurstücke AB
  6
1
370
    18
100
AcDbLine
 10
4442275.46
 20
5952326.396
 30
0.0
 11
4442283.900999999
 21
5952311.536999999
 31
0.0
  0
LINE
  5
109
330
9
100
AcDbEntity
  8
Flurstücke AB
  6
1
370
    18
100
AcDbLine
 10
4442283.900999999
 20
5952311.536999999
 30
0.0
 11
4442285.717
 21
5952308.05
 31
0.0
  0
LINE
  5
10A
330
9
100
AcDbEntity
  8
Flurstuck NB
  6
9233
370
    35
100
AcDbLine
 10
4442285.717
 20
5952308.05
 30
0.0
 11
4442283.529
 21
5952306.303
 31
0.0
  0
LINE
  5
10B
330
9
100
AcDbEntity
  8
Flurstuck NB
  6
9233
370
    35
100
AcDbLine
 10
4442291.302
 20
5952297.321999999
 30
0.0
 11
4442287.654
 21
5952301.106
 31
0.0
  0
LINE
  5
10C
330
9
100
AcDbEntity
  8
Flurstuck NB
  6
9233
370
    35
100
AcDbLine
 10
4442287.654
 20
5952301.106
 30
0.0
 11
4442283.529
 21
5952306.303
 31
0.0
  0
LINE
  5
10D
330
9
100
AcDbEntity
  8
Flurstücke AB
  6
1
370
    18
100
AcDbLine
 10
4442285.717
 20
5952308.05
 30
0.0
 11
4442291.302
 21
5952297.321999999
 31
0.0
  0
LINE
  5
10E
330
9
100
AcDbEntity
  8
Flurstücke AB
  6
1
370
    18
100
AcDbLine
 10
4442273.548999999
 20
5952329.76
 30
0.0
 11
4442270.309
 21
5952335.462
 31
0.0
  0
LINE
  5
10F
330
9
100
AcDbEntity
  8
Flurstücke AB
  6
1
370
    18
100
AcDbLine
 10
4442270.309
 20
5952335.462
 30
0.0
 11
4442268.182
 21
5952353.280000001
 31
0.0
  0
LINE
  5
110
330
9
100
AcDbEntity
  8
Flurstücke AB
  6
1
370
    18
100
AcDbLine
 10
4442268.182
 20
5952353.280000001
 30
0.0
 11
4442270.09
 21
5952353.886
 31
0.0
  0
LINE
  5
111
330
9
100
AcDbEntity
  8
Flurstuck NB
  6
9233
370
    35
100
AcDbLine
 10
4442270.09
 20
5952353.886
 30
0.0
 11
4442271.799
 21
5952335.945
 31
0.0
  0
LINE
  5
112
330
9
100
AcDbEntity
  8
Flurstuck NB
  6
9233
370
    35
100
AcDbLine
 10
4442271.799
 20
5952335.945
 30
0.0
 11
4442273.548999999
 21
5952329.76
 31
0.0
  0
INSERT
  5
119
330
9
100
AcDbEntity
  8
Flurstücke AB
370
    35
100
AcDbBlockReference
  2
S108
 10
4442277.039008
 20
5952356.078233
 30
0.0
 41
10.0
 42
10.0
 43
10.0
 50
17.54845756042
  0
INSERT
  5
11A
330
9
100
AcDbEntity
  8
Flurstücke AB
370
    35
100
AcDbBlockReference
  2
S108
 10
4442277.039008
 20
5952356.078233
 30
0.0
 41
10.0
 42
10.0
 43
10.0
 50
17.54845756042
  0
LINE
  5
11C
330
9
100
AcDbEntity
  8
Flurstücke AB
  6
232
370
    25
100
AcDbLine
 10
4442270.09
 20
5952353.886
 30
0.0
 11
4442283.985000001
 21
5952358.280000001
 31
0.0
  0
LINE
  5
11D
330
9
100
AcDbEntity
  8
Flurstücke AB
  6
1
370
    18
100
AcDbLine
 10
4442283.985000001
 20
5952358.280000001
 30
0.0
 11
4442297.745
 21
5952364.747999999
 31
0.0
  0
LINE
  5
11E
330
9
100
AcDbEntity
  8
Flurstuck NB
  6
9233
370
    35
100
AcDbLine
 10
4442297.745
 20
5952364.747999999
 30
0.0
 11
4442306.269999999
 21
5952348.006000001
 31
0.0
  0
LINE
  5
11F
330
9
100
AcDbEntity
  8
Flurstuck NB
  6
9233
370
    35
100
AcDbLine
 10
4442306.269999999
 20
5952348.006000001
 30
0.0
 11
4442275.46
 21
5952326.396
 31
0.0
  0
LINE
  5
120
330
9
100
AcDbEntity
  8
Flurstücke AB
  6
1
370
    18
100
AcDbLine
 10
4442326.41
 20
5952363.688
 30
0.0
 11
4442325.73
 21
5952363.012000001
 31
0.0
  0
LINE
  5
121
330
9
100
AcDbEntity
  8
Flurstuck NB
  6
9233
370
    35
100
AcDbLine
 10
4442325.73
 20
5952363.012000001
 30
0.0
 11
4442321.619
 21
5952358.924
 31
0.0
  0
LINE
  5
122
330
9
100
AcDbEntity
  8
Flurstuck NB
  6
9233
370
    35
100
AcDbLine
 10
4442321.619
 20
5952358.924
 30
0.0
 11
4442317.179999999
 21
5952363.585
 31
0.0
  0
LINE
  5
123
330
9
100
AcDbEntity
  8
Flurstuck NB
  6
9233
370
    35
100
AcDbLine
 10
4442317.179999999
 20
5952363.585
 30
0.0
 11
4442321.997
 21
5952368.198
 31
0.0
  0
INSERT
  5
124
330
9
100
AcDbEntity
  8
Flurstücke AB
370
    35
100
AcDbBlockReference
  2
S108
 10
4442324.199926
 20
5952365.939503001
 30
0.0
 41
10.0
 42
10.0
 43
10.0
 50
314.377174525637
  0
INSERT
  5
125
330
9
100
AcDbEntity
  8
Flurstücke AB
370
    35
100
AcDbBlockReference
  2
S108
 10
4442324.199926
 20
5952365.939503001
 30
0.0
 41
10.0
 42
10.0
 43
10.0
 50
314.377174525637
  0
LINE
  5
126
330
9
100
AcDbEntity
  8
Flurstücke AB
  6
232
370
    25
100
AcDbLine
 10
4442321.997
 20
5952368.198
 30
0.0
 11
4442326.41
 21
5952363.688
 31
0.0
  0
LINE
  5
127
330
9
100
AcDbEntity
  8
Flurstuck NB
  6
9233
370
    35
100
AcDbLine
 10
4442306.269999999
 20
5952348.006000001
 30
0.0
 11
4442314.794
 21
5952331.264
 31
0.0
  0
LINE
  5
128
330
9
100
AcDbEntity
  8
Flurstuck NB
  6
9233
370
    35
100
AcDbLine
 10
4442314.794
 20
5952331.264
 30
0.0
 11
4442285.717
 21
5952308.05
 31
0.0
  0
LINE
  5
129
330
9
100
AcDbEntity
  8
Flurstuck NB
  6
9233
370
    35
100
AcDbLine
 10
4442297.178999999
 20
5952291.224
 30
0.0
 11
4442291.302
 21
5952297.321999999
 31
0.0
  0
INSERT
  5
12A
330
9
100
AcDbEntity
  8
Flurstücke AB
370
    35
100
AcDbBlockReference
  2
S108
 10
4442302.213126999
 20
5952366.842975
 30
0.0
 41
10.0
 42
10.0
 43
10.0
 50
25.178568199498
  0
INSERT
  5
12B
330
9
100
AcDbEntity
  8
Flurstücke AB
370
    35
100
AcDbBlockReference
  2
S108
 10
4442302.213126999
 20
5952366.842975
 30
0.0
 41
10.0
 42
10.0
 43
10.0
 50
25.178568199498
  0
LINE
  5
12C
330
9
100
AcDbEntity
  8
Flurstücke AB
  6
232
370
    25
100
AcDbLine
 10
4442297.745
 20
5952364.747999999
 30
0.0
 11
4442306.677
 21
5952368.947
 31
0.0
  0
LINE
  5
12D
330
9
100
AcDbEntity
  8
Flurstücke AB
  6
1
370
    18
100
AcDbLine
 10
4442306.677
 20
5952368.947
 30
0.0
 11
4442316.498999999
 21
5952373.816
 31
0.0
  0
LINE
  5
12E
330
9
100
AcDbEntity
  8
Flurstücke AB
  6
1
370
    18
100
AcDbLine
 10
4442316.498999999
 20
5952373.816
 30
0.0
 11
4442321.997
 21
5952368.198
 31
0.0
  0
LINE
  5
12F
330
9
100
AcDbEntity
  8
Flurstücke AB
  6
1
370
    18
100
AcDbLine
 10
4442326.41
 20
5952363.688
 30
0.0
 11
4442330.871
 21
5952359.129999999
 31
0.0
  0
INSERT
  5
130
330
9
100
AcDbEntity
  8
Flurstücke AB
370
    35
100
AcDbBlockReference
  2
S108
 10
4442340.860172
 20
5952347.237783
 30
0.0
 41
10.0
 42
10.0
 43
10.0
 50
310.047886029613
  0
INSERT
  5
131
330
9
100
AcDbEntity
  8
Flurstücke AB
370
    35
100
AcDbBlockReference
  2
S108
 10
4442340.860172
 20
5952347.237783
 30
0.0
 41
10.0
 42
10.0
 43
10.0
 50
310.047886029613
  0
LINE
  5
132
330
9
100
AcDbEntity
  8
Flurstücke AB
  6
232
370
    25
100
AcDbLine
 10
4442330.871
 20
5952359.129999999
 30
0.0
 11
4442350.857
 21
5952335.352
 31
0.0
  0
LINE
  5
133
330
9
100
AcDbEntity
  8
Flurstücke AB
  6
1
370
    18
100
AcDbLine
 10
4442350.857
 20
5952335.352
 30
0.0
 11
4442351.676
 21
5952334.696
 31
0.0
  0
LINE
  5
134
330
9
100
AcDbEntity
  8
Flurstuck NB
  6
9233
370
    35
100
AcDbLine
 10
4442351.676
 20
5952334.696
 30
0.0
 11
4442297.178999999
 21
5952291.224
 31
0.0
  0
LINE
  5
135
330
9
100
AcDbEntity
  8
Flurstuck NB
  6
9233
370
    35
100
AcDbLine
 10
4442343.042
 20
5952246.334999999
 30
0.0
 11
4442297.178999999
 21
5952291.224
 31
0.0
  0
LINE
  5
136
330
9
100
AcDbEntity
  8
Flurstücke AB
  6
1
370
    18
100
AcDbLine
 10
4442351.676
 20
5952334.696
 30
0.0
 11
4442372.345999999
 21
5952318.127
 31
0.0
  0
LINE
  5
137
330
9
100
AcDbEntity
  8
Flurstücke AB
  6
1
370
    18
100
AcDbLine
 10
4442372.345999999
 20
5952318.127
 30
0.0
 11
4442384.092
 21
5952298.64
 31
0.0
  0
LINE
  5
138
330
9
100
AcDbEntity
  8
Flurstücke AB
  6
1
370
    18
100
AcDbLine
 10
4442384.092
 20
5952298.64
 30
0.0
 11
4442349.496
 21
5952269.274
 31
0.0
  0
LINE
  5
139
330
9
100
AcDbEntity
  8
Flurstücke AB
  6
1
370
    18
100
AcDbLine
 10
4442349.496
 20
5952269.274
 30
0.0
 11
4442355.261
 21
5952258.312
 31
0.0
  0
LINE
  5
13A
330
9
100
AcDbEntity
  8
Flurstücke AB
  6
1
370
    18
100
AcDbLine
 10
4442355.261
 20
5952258.312
 30
0.0
 11
4442343.042
 21
5952246.334999999
 31
0.0
  0
LINE
  5
13B
330
9
100
AcDbEntity
  8
Flurstücke AB
  6
1
370
    18
100
AcDbLine
 10
4442421.339
 20
5952174.263
 30
0.0
 11
4442400.293
 21
5952192.254999999
 31
0.0
  0
LINE
  5
13C
330
9
100
AcDbEntity
  8
Flurstücke AB
  6
1
370
    18
100
AcDbLine
 10
4442400.293
 20
5952192.254999999
 30
0.0
 11
4442357.072
 21
5952230.914
 31
0.0
  0
LINE
  5
13D
330
9
100
AcDbEntity
  8
Flurstücke AB
  6
1
370
    18
100
AcDbLine
 10
4442357.072
 20
5952230.914
 30
0.0
 11
4442341.095999999
 21
5952243.576
 31
0.0
  0
LINE
  5
13E
330
9
100
AcDbEntity
  8
Flurstücke AB
  6
1
370
    18
100
AcDbLine
 10
4442341.095999999
 20
5952243.576
 30
0.0
 11
4442295.128999999
 21
5952289.97
 31
0.0
  0
LINE
  5
13F
330
9
100
AcDbEntity
  8
Flurstücke AB
  6
1
370
    18
100
AcDbLine
 10
4442295.128999999
 20
5952289.97
 30
0.0
 11
4442291.302
 21
5952297.321999999
 31
0.0
  0
LINE
  5
140
330
9
100
AcDbEntity
  8
Flurstücke AB
  6
1
370
    18
100
AcDbLine
 10
4442343.042
 20
5952246.334999999
 30
0.0
 11
4442351.154
 21
5952239.091
 31
0.0
  0
LINE
  5
141
330
9
100
AcDbEntity
  8
Flurstücke AB
  6
1
370
    18
100
AcDbLine
 10
4442351.154
 20
5952239.091
 30
0.0
 11
4442365.854
 21
5952225.893000001
 31
0.0
  0
LINE
  5
142
330
9
100
AcDbEntity
  8
Flurstuck NB
  6
9233
370
    35
100
AcDbLine
 10
4442365.854
 20
5952225.893000001
 30
0.0
 11
4442411.995
 21
5952187.439
 31
0.0
  0
LINE
  5
143
330
9
100
AcDbEntity
  8
Flurstuck NB
  6
9233
370
    35
100
AcDbLine
 10
4442411.995
 20
5952187.439
 30
0.0
 11
4442424.32
 21
5952176.122
 31
0.0
  0
LINE
  5
144
330
9
100
AcDbEntity
  8
Flurstücke AB
  6
1
370
    18
100
AcDbLine
 10
4442424.32
 20
5952176.122
 30
0.0
 11
4442421.339
 21
5952174.263
 31
0.0
  0
LINE
  5
145
330
9
100
AcDbEntity
  8
Flurstücke AB
  6
1
370
    18
100
AcDbLine
 10
4442365.854
 20
5952225.893000001
 30
0.0
 11
4442379.843999999
 21
5952236.178
 31
0.0
  0
LINE
  5
146
330
9
100
AcDbEntity
  8
Flurstücke AB
  6
1
370
    18
100
AcDbLine
 10
4442379.843999999
 20
5952236.178
 30
0.0
 11
4442382.627
 21
5952238.304999999
 31
0.0
  0
LINE
  5
147
330
9
100
AcDbEntity
  8
Flurstücke AB
  6
1
370
    18
100
AcDbLine
 10
4442382.627
 20
5952238.304999999
 30
0.0
 11
4442409.005
 21
5952257.452
 31
0.0
  0
LINE
  5
148
330
9
100
AcDbEntity
  8
Flurstücke AB
  6
1
370
    18
100
AcDbLine
 10
4442409.005
 20
5952257.452
 30
0.0
 11
4442441.234
 21
5952204.109
 31
0.0
  0
LINE
  5
149
330
9
100
AcDbEntity
  8
Flurstücke AB
  6
1
370
    18
100
AcDbLine
 10
4442441.234
 20
5952204.109
 30
0.0
 11
4442448.923
 21
5952191.468000001
 31
0.0
  0
LINE
  5
14A
330
9
100
AcDbEntity
  8
Flurstücke AB
  6
1
370
    18
100
AcDbLine
 10
4442448.923
 20
5952191.468000001
 30
0.0
 11
4442424.32
 21
5952176.122
 31
0.0
  0
LINE
  5
14C
330
9
100
AcDbEntity
  8
Gebäude
  6
1013
370
    18
100
AcDbLine
 10
4442319.968999999
 20
5952363.519
 30
0.0
 11
4442321.458
 21
5952364.948
 31
0.0
  0
LINE
  5
14D
330
9
100
AcDbEntity
  8
Gebäude
  6
1013
370
    18
100
AcDbLine
 10
4442321.458
 20
5952364.948
 30
0.0
 11
4442323.167
 21
5952363.133000001
 31
0.0
  0
LINE
  5
14E
330
9
100
AcDbEntity
  8
Gebäude
  6
1013
370
    18
100
AcDbLine
 10
4442323.167
 20
5952363.133000001
 30
0.0
 11
4442321.663999999
 21
5952361.732
 31
0.0
  0
LINE
  5
14F
330
9
100
AcDbEntity
  8
Gebäude
  6
1013
370
    18
100
AcDbLine
 10
4442321.663999999
 20
5952361.732
 30
0.0
 11
4442319.968999999
 21
5952363.519
 31
0.0
  0
LINE
  5
150
330
9
100
AcDbEntity
  8
Flurstücke AB
  6
1
370
    18
100
AcDbLine
 10
4442351.154
 20
5952239.091
 30
0.0
 11
4442362.85715
 21
5952250.562366999
 31
0.0
  0
LINE
  5
151
330
9
100
AcDbEntity
  8
Flurstücke AB
  6
1
370
    18
100
AcDbLine
 10
4442384.092
 20
5952298.64
 30
0.0
 11
4442386.673166001
 21
5952294.35776
 31
0.0
  0
LINE
  5
152
330
9
100
AcDbEntity
  8
Flurstücke AB
  6
1
370
    18
100
AcDbLine
 10
4442409.005
 20
5952257.452
 30
0.0
 11
4442406.419366999
 21
5952261.731544
 31
0.0
  0
LINE
  5
153
330
9
100
AcDbEntity
  8
Flurstücke AB
  6
1
370
    18
100
AcDbLine
 10
4442448.923
 20
5952191.468000001
 30
0.0
 11
4442451.521373
 21
5952187.196178999
 31
0.0
  0
LINE
  5
154
330
9
100
AcDbEntity
  8
Flurstücke AB
  6
1
370
    18
100
AcDbLine
 10
4442421.339
 20
5952174.263
 30
0.0
 11
4442425.899614
 21
5952170.364180001
 31
0.0
  0
LINE
  5
155
330
9
100
AcDbEntity
  8
Flurstücke AB
  6
1
370
    18
100
AcDbLine
 10
4442270.09
 20
5952353.886
 30
0.0
 11
4442269.259999999
 21
5952363.855999999
 31
0.0
  0
LINE
  5
156
330
9
100
AcDbEntity
  8
Flurstücke AB
  6
1
370
    18
100
AcDbLine
 10
4442269.259999999
 20
5952363.855999999
 30
0.0
 11
4442267.597999999
 21
5952383.804
 31
0.0
  0
INSERT
  5
15A
330
9
100
AcDbEntity
  8
Flurstücke AB
370
    35
100
AcDbBlockReference
  2
S108
 10
4442314.807578
 20
5952376.978473999
 30
0.0
 41
10.0
 42
10.0
 43
10.0
 50
118.219597708531
  0
INSERT
  5
15B
330
9
100
AcDbEntity
  8
Flurstücke AB
370
    35
100
AcDbBlockReference
  2
S108
 10
4442314.807578
 20
5952376.978473999
 30
0.0
 41
10.0
 42
10.0
 43
10.0
 50
118.219597708531
  0
LINE
  5
15C
330
9
100
AcDbEntity
  8
Flurstücke AB
  6
232
370
    25
100
AcDbLine
 10
4442316.498999999
 20
5952373.816
 30
0.0
 11
4442313.107344
 21
5952380.13622
 31
0.0
  0
LINE
  5
15D
330
9
100
AcDbEntity
  8
Flurstücke AB
  6
1
370
    18
100
AcDbLine
 10
4442267.597999999
 20
5952383.804
 30
0.0
 11
4442266.884
 21
5952420.517
 31
0.0
  0
LINE
  5
15E
330
9
100
AcDbEntity
  8
Flurstücke AB
  6
1
370
    18
100
AcDbLine
 10
4442268.182
 20
5952353.280000001
 30
0.0
 11
4442267.597999999
 21
5952383.804
 31
0.0
  0
INSERT
  5
165
330
9
100
AcDbEntity
  8
Flurstücke AB
370
    35
100
AcDbBlockReference
  2
S108
 10
4442354.618706
 20
5952338.317085
 30
0.0
 41
10.0
 42
10.0
 43
10.0
 50
38.306010764899
  0
INSERT
  5
166
330
9
100
AcDbEntity
  8
Flurstücke AB
370
    35
100
AcDbBlockReference
  2
S108
 10
4442354.618706
 20
5952338.317085
 30
0.0
 41
10.0
 42
10.0
 43
10.0
 50
38.306010764899
  0
LINE
  5
167
330
9
100
AcDbEntity
  8
Flurstücke AB
  6
232
370
    25
100
AcDbLine
 10
4442350.857
 20
5952335.352
 30
0.0
 11
4442358.374212999
 21
5952341.290017999
 31
0.0
  0
INSERT
  5
16C
330
9
100
AcDbEntity
  8
Topographie
370
    18
100
AcDbBlockReference
  2
S213
 10
4442272.886198999
 20
5952344.117166001
 30
0.0
 41
0.55
 42
0.55
 43
0.55
 50
32.218033202464
  0
INSERT
  5
16D
330
9
100
AcDbEntity
  8
Topographie
370
    18
100
AcDbBlockReference
  2
S213
 10
4442275.001262999
 20
5952345.450022
 30
0.0
 41
0.55
 42
0.55
 43
0.55
 50
32.218033202464
  0
INSERT
  5
16E
330
9
100
AcDbEntity
  8
Topographie
370
    18
100
AcDbBlockReference
  2
S213
 10
4442277.116326001
 20
5952346.782879001
 30
0.0
 41
0.55
 42
0.55
 43
0.55
 50
32.218033202464
  0
INSERT
  5
16F
330
9
100
AcDbEntity
  8
Topographie
370
    18
100
AcDbBlockReference
  2
S213
 10
4442279.23139
 20
5952348.115735
 30
0.0
 41
0.55
 42
0.55
 43
0.55
 50
32.218033202464
  0
INSERT
  5
170
330
9
100
AcDbEntity
  8
Topographie
370
    18
100
AcDbBlockReference
  2
S213
 10
4442281.346452999
 20
5952349.448591
 30
0.0
 41
0.55
 42
0.55
 43
0.55
 50
32.218033202464
  0
INSERT
  5
171
330
9
100
AcDbEntity
  8
Topographie
370
    18
100
AcDbBlockReference
  2
S213
 10
4442283.461517
 20
5952350.781448
 30
0.0
 41
0.55
 42
0.55
 43
0.55
 50
32.218033202464
  0
INSERT
  5
172
330
9
100
AcDbEntity
  8
Topographie
370
    18
100
AcDbBlockReference
  2
S213
 10
4442285.57658
 20
5952352.114304001
 30
0.0
 41
0.55
 42
0.55
 43
0.55
 50
32.218033202464
  0
INSERT
  5
173
330
9
100
AcDbEntity
  8
Topographie
370
    18
100
AcDbBlockReference
  2
S213
 10
4442287.691644
 20
5952353.447161
 30
0.0
 41
0.55
 42
0.55
 43
0.55
 50
32.218033202464
  0
INSERT
  5
174
330
9
100
AcDbEntity
  8
Topographie
370
    18
100
AcDbBlockReference
  2
S213
 10
4442289.806707001
 20
5952354.780017
 30
0.0
 41
0.55
 42
0.55
 43
0.55
 50
32.218033202464
  0
INSERT
  5
175
330
9
100
AcDbEntity
  8
Topographie
370
    18
100
AcDbBlockReference
  2
S213
 10
4442291.921771
 20
5952356.112873999
 30
0.0
 41
0.55
 42
0.55
 43
0.55
 50
32.218033202464
  0
INSERT
  5
176
330
9
100
AcDbEntity
  8
Topographie
370
    18
100
AcDbBlockReference
  2
S213
 10
4442294.036834
 20
5952357.445730001
 30
0.0
 41
0.55
 42
0.55
 43
0.55
 50
32.218033202464
  0
INSERT
  5
177
330
9
100
AcDbEntity
  8
Topographie
370
    18
100
AcDbBlockReference
  2
S213
 10
4442296.151898
 20
5952358.778587
 30
0.0
 41
0.55
 42
0.55
 43
0.55
 50
32.218033202464
  0
INSERT
  5
178
330
9
100
AcDbEntity
  8
Topographie
370
    18
100
AcDbBlockReference
  2
S213
 10
4442298.266961
 20
5952360.111443
 30
0.0
 41
0.55
 42
0.55
 43
0.55
 50
32.218033202464
  0
INSERT
  5
179
330
9
100
AcDbEntity
  8
Topographie
370
    18
100
AcDbBlockReference
  2
S213
 10
4442300.382025
 20
5952361.444298999
 30
0.0
 41
0.55
 42
0.55
 43
0.55
 50
32.218033202464
  0
INSERT
  5
17A
330
9
100
AcDbEntity
  8
Topographie
370
    18
100
AcDbBlockReference
  2
S213
 10
4442302.497088
 20
5952362.777156
 30
0.0
 41
0.55
 42
0.55
 43
0.55
 50
32.218033202464
  0
INSERT
  5
17B
330
9
100
AcDbEntity
  8
Topographie
370
    18
100
AcDbBlockReference
  2
S213
 10
4442304.612152
 20
5952364.110012
 30
0.0
 41
0.55
 42
0.55
 43
0.55
 50
32.218033202464
  0
INSERT
  5
17C
330
9
100
AcDbEntity
  8
Topographie
370
    18
100
AcDbBlockReference
  2
S213
 10
4442306.727215
 20
5952365.442869001
 30
0.0
 41
0.55
 42
0.55
 43
0.55
 50
32.218033202464
  0
INSERT
  5
17D
330
9
100
AcDbEntity
  8
Topographie
370
    18
100
AcDbBlockReference
  2
S213
 10
4442308.842279
 20
5952366.775724999
 30
0.0
 41
0.55
 42
0.55
 43
0.55
 50
32.218033202464
  0
INSERT
  5
17E
330
9
100
AcDbEntity
  8
Topographie
370
    18
100
AcDbBlockReference
  2
S213
 10
4442310.957342
 20
5952368.108582001
 30
0.0
 41
0.55
 42
0.55
 43
0.55
 50
32.218033202464
  0
INSERT
  5
17F
330
9
100
AcDbEntity
  8
Topographie
370
    18
100
AcDbBlockReference
  2
S213
 10
4442313.072405999
 20
5952369.441437999
 30
0.0
 41
0.55
 42
0.55
 43
0.55
 50
32.218033202464
  0
INSERT
  5
180
330
9
100
AcDbEntity
  8
Topographie
370
    18
100
AcDbBlockReference
  2
S213
 10
4442315.187469
 20
5952370.774294999
 30
0.0
 41
0.55
 42
0.55
 43
0.55
 50
32.218033202464
  0
LINE
  5
182
330
9
100
AcDbEntity
  8
Topographie
  6
353
370
    18
100
AcDbLine
 10
4442270.807
 20
5952342.800999999
 30
0.0
 11
4442317.272
 21
5952372.082000001
 31
0.0
  0
MTEXT
  5
2B6
330
9
100
AcDbEntity
  8
Flurstücke AB
370
    25
100
AcDbMText
 10
4442324.273806159
 20
5952325.771156441
 30
0.0
 40
1.25
 41
0.0
 46
0.0
 71
     8
 72
     1
  1
\Q17;\A1;\S24/16;
  7
1 Flurstücksnummer neu rot
 73
     1
 44
0.69
  0
LWPOLYLINE
  5
2D5
330
9
100
AcDbEntity
  8
Flurstuck NB
  6
9233
370
    35
100
AcDbPolyline
 90
        2
 70
     0
 43
0.0
 10
4442314.794
 20
5952331.264
 10
4442338.431359375
 20
5952350.135192374
  0
MTEXT
  5
2D6
330
9
100
AcDbEntity
  8
Flurstücke AB
370
    25
100
AcDbMText
 10
4442311.949883896
 20
5952345.811481296
 30
0.0
 40
1.25
 41
0.0
 46
0.0
 71
     8
 72
     1
  1
\Q17;\A1;\S24/12;
  7
1 Flurstücksnummer neu rot
 73
     1
 44
0.69
  0
ENDSEC
  0
SECTION
  2
OBJECTS
  0
DICTIONARY
  5
183
330
0
100
AcDbDictionary
281
     1
  3
ACAD_CIP_PREVIOUS_PRODUCT_INFO
350
2EE
  3
ACAD_COLOR
350
1C7
  3
ACAD_GROUP
350
184
  3
ACAD_IMAGE_DICT
350
186
  3
ACAD_LAYOUT
350
1F4
  3
ACAD_MATERIAL
350
19D
  3
ACAD_MLEADERSTYLE
350
1EC
  3
ACAD_MLINESTYLE
350
185
  3
ACAD_PLOTSETTINGS
350
1F5
  3
ACAD_PLOTSTYLENAME
350
19B
  3
ACAD_SCALELIST
350
1CA
  3
ACAD_TABLESTYLE
350
1C8
  3
ACAD_VISUALSTYLE
350
1B6
  3
ACDB_RECOMPOSE_DATA
350
388
  3
AcDbVariableDictionary
350
22D
  3
ADE_QUERY_LIBRARY
350
206
  3
ASE_INDEX_DICTIONARY
350
2F5
  3
Autodesk_MAP
350
1EF
1001
ADE
1000
ADE02C004
1000
[Query]
1000
CaseSensitiveMatch=0
1000
SaveCurrQueryInSession=1
1000
MkSelSetWithQryObj=0
1000
ShowBlockAsInsPt=0
1000
CreateAssociativeHatchObjects=0
1000
ReferenceBoundaryForAreaLocation=1
1000
ShowImageAsBoundary=1
1000
DefaultJoinOperator=2
1000
ColorForAdd=red
1000
ColorForRemove=red
1000
BlockLocnForQuery=1
1000
TextLocnForQuery=1
1000
IncludeAllObjectsInGroups=0
1000
AlwaysUseLibraryDefinitions=0
1000
PreviewDefinitionsFrom=2
1000
[Save Back]
1000
RedefineBlockDefinitions=1
1000
RedefineLayerDefinitions=1
1000
RedefineTextStyleDefinitions=1
1000
RemoveUnusedGroups=1
1000
EraseSavedBackObjects=1
1000
RemoveLockAfterSave=1
1000
CreateHistoryFileOfChanges=0
1000
CreateBackupFileOfSourceDwg=1
1000
DontAddObjectsToSaveSet=0
1000
MarkObjectsForEditingWithoutPrompting=0
1000
FdoDontAddObjsToSvSet=0
1000
FdoEditWithoutPrompt=1
1000
FdoRemUnusedGrps=1
1000
FdoEraseSvdBkObjs=1
1000
FdoRemoveLockOnSave=1
1000
FdoTesselationMaxPointsDistance=0
1000
FdoTesselationMaxCurvesDistance=0
1000
[Coordinate Transformation]
1000
RestoreLastActiveDwgsOnStartup=1
1000
ActivateDwgsOnAttach=1
1000
AdjustSizesAndScalesForChangesInUnits=1
1000
AdjustRotationsForMapDistortions=1
1000
AdjustSizesAndScalesForMapDistortions=1
1000
AdjustElevations=1
1000
AdjustZeroRotationObjects=1
1000
ReconnectDbOnWSOpen=1
1000
NoOfSQLConditionsInHistory=10
  0
DICTIONARY
  5
226
330
188
100
AcDbDictionary
280
     1
281
     1
  0
DICTIONARY
  5
26A
330
18A
100
AcDbDictionary
280
     1
281
     1
  3
ACAD_LAYERFILTERS
360
26C
  3
ACLYDICTIONARY
360
26B
  0
DICTIONARY
  5
20D
330
10
100
AcDbDictionary
280
     1
281
     1
  3
ADSK_XREC_LAYER_RECONCILED
360
20E
  0
DICTIONARY
  5
20F
330
13
100
AcDbDictionary
280
     1
281
     1
  3
ADSK_XREC_LAYER_RECONCILED
360
210
  0
DICTIONARY
  5
211
330
28
100
AcDbDictionary
280
     1
281
     1
  3
ADSK_XREC_LAYER_RECONCILED
360
212
  0
DICTIONARY
  5
215
330
36
100
AcDbDictionary
280
     1
281
     1
  3
ADSK_XREC_LAYER_RECONCILED
360
216
  0
DICTIONARY
  5
217
330
46
100
AcDbDictionary
280
     1
281
     1
  3
ADSK_XREC_LAYER_RECONCILED
360
218
  0
DICTIONARY
  5
219
330
70
100
AcDbDictionary
280
     1
281
     1
  3
ADSK_XREC_LAYER_RECONCILED
360
21A
  0
DICTIONARY
  5
21D
330
FC
100
AcDbDictionary
280
     1
281
     1
  3
ADSK_XREC_LAYER_RECONCILED
360
21E
  0
DICTIONARY
  5
21F
330
159
100
AcDbDictionary
280
     1
281
     1
  3
ADSK_XREC_LAYER_RECONCILED
360
220
  0
DICTIONARY
  5
2DE
330
9
100
AcDbDictionary
280
     1
281
     1
  3
ACAD_SORTENTS
360
2DF
  0
XRECORD
  5
2EE
102
{ACAD_REACTORS
330
183
102
}
330
183
100
AcDbXrecord
280
     1
300
MAP
300
2012
300
MAP_F_S
  0
DICTIONARY
  5
1C7
102
{ACAD_REACTORS
330
183
102
}
330
183
100
AcDbDictionary
281
     1
  0
DICTIONARY
  5
184
102
{ACAD_REACTORS
330
183
102
}
330
183
100
AcDbDictionary
281
     1
  0
DICTIONARY
  5
186
102
{ACAD_REACTORS
330
183
102
}
330
183
100
AcDbDictionary
281
     1
  0
DICTIONARY
  5
1F4
102
{ACAD_REACTORS
330
183
102
}
330
183
100
AcDbDictionary
281
     1
  3
Layout1
350
1F7
  3
Model
350
1F6
  0
DICTIONARY
  5
19D
102
{ACAD_REACTORS
330
183
102
}
330
183
100
AcDbDictionary
281
     1
  3
ByBlock
350
1A6
  3
ByLayer
350
19E
  3
Global
350
1AE
  0
DICTIONARY
  5
1EC
102
{ACAD_REACTORS
330
183
102
}
330
183
100
AcDbDictionary
281
     1
  3
Standard
350
1ED
  0
DICTIONARY
  5
185
102
{ACAD_REACTORS
330
183
102
}
330
183
100
AcDbDictionary
281
     1
  3
STANDARD
350
F
  0
DICTIONARY
  5
1F5
102
{ACAD_REACTORS
330
183
102
}
330
183
100
AcDbDictionary
281
     1
  0
ACDBDICTIONARYWDFLT
  5
19B
102
{ACAD_REACTORS
330
183
102
}
330
183
100
AcDbDictionary
281
     1
  3
Normal
350
19C
100
AcDbDictionaryWithDefault
340
19C
  0
DICTIONARY
  5
1CA
102
{ACAD_REACTORS
330
183
102
}
330
183
100
AcDbDictionary
281
     1
  3
A0
350
1CB
  3
A1
350
1CC
  3
A2
350
1CD
  3
A3
350
1CE
  3
A4
350
1CF
  3
A5
350
1D0
  3
A6
350
1D1
  3
A7
350
1D2
  3
A8
350
1D3
  3
A9
350
1D4
  3
B0
350
1D5
  3
B1
350
1D6
  3
B2
350
1D7
  3
B3
350
1D8
  3
B4
350
1D9
  3
B5
350
1DA
  3
B6
350
1DB
  3
B7
350
1DC
  3
B8
350
1DD
  3
B9
350
1DE
  3
C0
350
1DF
  3
C1
350
1E0
  3
C2
350
1E1
  3
C3
350
1E2
  3
C4
350
1E3
  3
C5
350
1E4
  3
C6
350
1E5
  3
C7
350
1E6
  3
C8
350
1E7
  3
C9
350
1E8
  3
D0
350
1E9
  3
D1
350
1EA
  3
D2
350
1EB
  0
DICTIONARY
  5
1C8
102
{ACAD_REACTORS
330
183
102
}
330
183
100
AcDbDictionary
281
     1
  3
Legend
350
1FB
  3
Standard
350
1C9
  0
DICTIONARY
  5
1B6
102
{ACAD_REACTORS
330
183
102
}
330
183
100
AcDbDictionary
281
     1
  3
2dWireframe
350
1BC
  3
3D Hidden
350
1BE
  3
3dWireframe
350
1BD
  3
Basic
350
1BB
  3
Brighten
350
1C2
  3
ColorChange
350
1C6
  3
Conceptual
350
1BF
  3
Dim
350
1C1
  3
EdgeColorOff
350
2EA
  3
Facepattern
350
1C5
  3
Flat
350
1B7
  3
FlatWithEdges
350
1B8
  3
Gouraud
350
1B9
  3
GouraudWithEdges
350
1BA
  3
Hidden
350
2E2
  3
JitterOff
350
2E8
  3
Linepattern
350
1C4
  3
OverhangOff
350
2E9
  3
Realistic
350
1C0
  3
Shaded
350
2E7
  3
Shaded with edges
350
2E6
  3
Shades of Gray
350
2E3
  3
Sketchy
350
2E4
  3
Thicken
350
1C3
  3
Wireframe
350
2E1
  3
X-Ray
350
2E5
  0
XRECORD
  5
388
102
{ACAD_REACTORS
330
183
102
}
330
183
100
AcDbXrecord
280
     1
 90
        1
330
1C9
330
1FB
  0
DICTIONARY
  5
22D
102
{ACAD_REACTORS
330
183
102
}
330
183
100
AcDbDictionary
281
     1
  3
CANNOSCALE
350
230
  3
CMLEADERSTYLE
350
22F
  3
CTABLESTYLE
350
22E
  3
LAYEREVAL
350
384
  3
LAYERNOTIFY
350
385
  3
LIGHTINGUNITS
350
23C
  3
MSLTSCALE
350
23B
  0
DICTIONARY
  5
206
102
{ACAD_REACTORS
330
183
102
}
330
183
100
AcDbDictionary
281
     1
  3
_CurrQry
350
382
  0
DICTIONARY
  5
2F5
102
{ACAD_REACTORS
330
183
102
}
330
183
100
AcDbDictionary
281
     1
  3
ASEBlockHierarchyIndexRecord
350
2F6
1001
DCO15
1040
1720345895.781
  0
DICTIONARY
  5
1EF
102
{ACAD_REACTORS
330
183
102
}
330
183
100
AcDbDictionary
281
     1
  3
AcMapDMStylizedEntities
350
202
  3
FSD_Dictionary
350
203
  3
MAP_DISPLAY_CUSTOMOBJ_REG_TABLE
350
1F3
  3
MAP_DISPLAY_MANAGEMENT_DICTIONARY
350
1F0
  3
MAP_DISPLAY_STYLELIBRARY_DICTIONARY
350
1F1
  3
MAP_RESOURCE_VERSION_MANAGEMENT_DICTIONARY
350
2F0
1001
MapGWS
1000
C:\Dokumente und Einstellungen\All Users\Anwendungsdaten\Autodesk\AutoCAD Map 3D 2012\R18.2\MapCache\10091-Lageplan-bearbeitetGWS1306932999.xml
  0
DICTIONARY
  5
26C
102
{ACAD_REACTORS
330
26A
102
}
330
26A
100
AcDbDictionary
281
     1
  0
DICTIONARY
  5
26B
102
{ACAD_REACTORS
330
26A
102
}
330
26A
100
AcDbDictionary
281
     1
1001
ACAD
1000
<All
  0
XRECORD
  5
20E
102
{ACAD_REACTORS
330
20D
102
}
330
20D
100
AcDbXrecord
280
     1
290
     1
  0
XRECORD
  5
210
102
{ACAD_REACTORS
330
20F
102
}
330
20F
100
AcDbXrecord
280
     1
290
     1
  0
XRECORD
  5
212
102
{ACAD_REACTORS
330
211
102
}
330
211
100
AcDbXrecord
280
     1
290
     1
  0
XRECORD
  5
216
102
{ACAD_REACTORS
330
215
102
}
330
215
100
AcDbXrecord
280
     1
290
     1
  0
XRECORD
  5
218
102
{ACAD_REACTORS
330
217
102
}
330
217
100
AcDbXrecord
280
     1
290
     1
  0
XRECORD
  5
21A
102
{ACAD_REACTORS
330
219
102
}
330
219
100
AcDbXrecord
280
     1
290
     1
  0
XRECORD
  5
21E
102
{ACAD_REACTORS
330
21D
102
}
330
21D
100
AcDbXrecord
280
     1
290
     1
  0
XRECORD
  5
220
102
{ACAD_REACTORS
330
21F
102
}
330
21F
100
AcDbXrecord
280
     1
290
     1
  0
SORTENTSTABLE
  5
2DF
102
{ACAD_REACTORS
330
2DE
102
}
330
2DE
100
AcDbSortentsTable
330
9
  0
LAYOUT
  5
1F7
102
{ACAD_REACTORS
330
1F4
102
}
330
1F4
100
AcDbPlotSettings
  1

  2
C:\Programme\Autodesk Map 2004\Plotters\Plotter36Zoll.pc3
  4

  6

 40
0.0
 41
0.0
 42
0.0
 43
0.0
 44
0.0
 45
0.0
 46
0.0
 47
0.0
 48
0.0
 49
0.0
140
0.0
141
0.0
142
1.0
143
1.0
 70
   688
 72
     0
 73
     0
 74
     5
  7

 75
    16
147
1.0
 76
     0
 77
     2
 78
   300
148
0.0
149
0.0
100
AcDbLayout
  1
Layout1
 70
     1
 71
     1
 10
0.0
 20
0.0
 11
12.0
 21
9.0
 12
0.0
 22
0.0
 32
0.0
 14
24.53639869689943
 24
20.58670020103455
 34
0.0
 15
220.8275882720947
 25
185.2803018093109
 35
0.0
146
0.0
 13
0.0
 23
0.0
 33
0.0
 16
1.0
 26
0.0
 36
0.0
 17
0.0
 27
1.0
 37
0.0
 76
     0
330
C
  0
LAYOUT
  5
1F6
102
{ACAD_REACTORS
330
1F4
102
}
330
1F4
100
AcDbPlotSettings
  1

  2
C:\Programme\Autodesk Map 2004\Plotters\Plotter36Zoll.pc3
  4

  6

 40
0.0
 41
0.0
 42
0.0
 43
0.0
 44
0.0
 45
0.0
 46
0.0
 47
0.0
 48
0.0
 49
0.0
140
0.0
141
0.0
142
1.0
143
1.0
 70
  1712
 72
     0
 73
     0
 74
     0
  7

 75
     0
147
1.0
 76
     0
 77
     2
 78
   300
148
0.0
149
0.0
100
AcDbLayout
  1
Model
 70
     1
 71
     0
 10
0.0
 20
0.0
 11
12.0
 21
9.0
 12
0.0
 22
0.0
 32
0.0
 14
0.0
 24
0.0
 34
0.0
 15
0.0
 25
0.0
 35
0.0
146
0.0
 13
0.0
 23
0.0
 33
0.0
 16
1.0
 26
0.0
 36
0.0
 17
0.0
 27
1.0
 37
0.0
 76
     0
330
9
331
2DA
  0
MATERIAL
  5
1A6
102
{ACAD_XDICTIONARY
360
1A7
102
}
102
{ACAD_REACTORS
330
19D
102
}
330
19D
100
AcDbMaterial
  1
ByBlock
 72
     0
 43
0.820209973753281
 43
0.0
 43
0.0
 43
0.0
 43
0.0
 43
0.820209973753281
 43
0.0
 43
0.0
 43
0.0
 43
0.0
 43
1.0
 43
0.0
 43
0.0
 43
0.0
 43
0.0
 43
1.0
 77
     0
 47
0.820209973753281
 47
0.0
 47
0.0
 47
0.0
 47
0.0
 47
0.820209973753281
 47
0.0
 47
0.0
 47
0.0
 47
0.0
 47
1.0
 47
0.0
 47
0.0
 47
0.0
 47
0.0
 47
1.0
171
     0
 49
0.820209973753281
 49
0.0
 49
0.0
 49
0.0
 49
0.0
 49
0.820209973753281
 49
0.0
 49
0.0
 49
0.0
 49
0.0
 49
1.0
 49
0.0
 49
0.0
 49
0.0
 49
0.0
 49
1.0
175
     0
142
0.820209973753281
142
0.0
142
0.0
142
0.0
142
0.0
142
0.820209973753281
142
0.0
142
0.0
142
0.0
142
0.0
142
1.0
142
0.0
142
0.0
142
0.0
142
0.0
142
1.0
179
     0
144
0.820209973753281
144
0.0
144
0.0
144
0.0
144
0.0
144
0.820209973753281
144
0.0
144
0.0
144
0.0
144
0.0
144
1.0
144
0.0
144
0.0
144
0.0
144
0.0
144
1.0
147
0.820209973753281
147
0.0
147
0.0
147
0.0
147
0.0
147
0.820209973753281
147
0.0
147
0.0
147
0.0
147
0.0
147
1.0
147
0.0
147
0.0
147
0.0
147
0.0
147
1.0
  0
MATERIAL
  5
19E
102
{ACAD_XDICTIONARY
360
19F
102
}
102
{ACAD_REACTORS
330
19D
102
}
330
19D
100
AcDbMaterial
  1
ByLayer
 72
     0
 43
0.820209973753281
 43
0.0
 43
0.0
 43
0.0
 43
0.0
 43
0.820209973753281
 43
0.0
 43
0.0
 43
0.0
 43
0.0
 43
1.0
 43
0.0
 43
0.0
 43
0.0
 43
0.0
 43
1.0
 77
     0
 47
0.820209973753281
 47
0.0
 47
0.0
 47
0.0
 47
0.0
 47
0.820209973753281
 47
0.0
 47
0.0
 47
0.0
 47
0.0
 47
1.0
 47
0.0
 47
0.0
 47
0.0
 47
0.0
 47
1.0
171
     0
 49
0.820209973753281
 49
0.0
 49
0.0
 49
0.0
 49
0.0
 49
0.820209973753281
 49
0.0
 49
0.0
 49
0.0
 49
0.0
 49
1.0
 49
0.0
 49
0.0
 49
0.0
 49
0.0
 49
1.0
175
     0
142
0.820209973753281
142
0.0
142
0.0
142
0.0
142
0.0
142
0.820209973753281
142
0.0
142
0.0
142
0.0
142
0.0
142
1.0
142
0.0
142
0.0
142
0.0
142
0.0
142
1.0
179
     0
144
0.820209973753281
144
0.0
144
0.0
144
0.0
144
0.0
144
0.820209973753281
144
0.0
144
0.0
144
0.0
144
0.0
144
1.0
144
0.0
144
0.0
144
0.0
144
0.0
144
1.0
147
0.820209973753281
147
0.0
147
0.0
147
0.0
147
0.0
147
0.820209973753281
147
0.0
147
0.0
147
0.0
147
0.0
147
1.0
147
0.0
147
0.0
147
0.0
147
0.0
147
1.0
  0
MATERIAL
  5
1AE
102
{ACAD_XDICTIONARY
360
1AF
102
}
102
{ACAD_REACTORS
330
19D
102
}
330
19D
100
AcDbMaterial
  1
Global
 72
     0
 43
0.820209973753281
 43
0.0
 43
0.0
 43
0.0
 43
0.0
 43
0.820209973753281
 43
0.0
 43
0.0
 43
0.0
 43
0.0
 43
1.0
 43
0.0
 43
0.0
 43
0.0
 43
0.0
 43
1.0
 77
     0
 47
0.820209973753281
 47
0.0
 47
0.0
 47
0.0
 47
0.0
 47
0.820209973753281
 47
0.0
 47
0.0
 47
0.0
 47
0.0
 47
1.0
 47
0.0
 47
0.0
 47
0.0
 47
0.0
 47
1.0
171
     0
 49
0.820209973753281
 49
0.0
 49
0.0
 49
0.0
 49
0.0
 49
0.820209973753281
 49
0.0
 49
0.0
 49
0.0
 49
0.0
 49
1.0
 49
0.0
 49
0.0
 49
0.0
 49
0.0
 49
1.0
175
     0
142
0.820209973753281
142
0.0
142
0.0
142
0.0
142
0.0
142
0.820209973753281
142
0.0
142
0.0
142
0.0
142
0.0
142
1.0
142
0.0
142
0.0
142
0.0
142
0.0
142
1.0
179
     0
144
0.820209973753281
144
0.0
144
0.0
144
0.0
144
0.0
144
0.820209973753281
144
0.0
144
0.0
144
0.0
144
0.0
144
1.0
144
0.0
144
0.0
144
0.0
144
0.0
144
1.0
147
0.820209973753281
147
0.0
147
0.0
147
0.0
147
0.0
147
0.820209973753281
147
0.0
147
0.0
147
0.0
147
0.0
147
1.0
147
0.0
147
0.0
147
0.0
147
0.0
147
1.0
  0
MLEADERSTYLE
  5
1ED
102
{ACAD_REACTORS
330
1EC
102
}
330
1EC
100
AcDbMLeaderStyle
179
     2
170
     2
171
     1
172
     0
 90
        2
 40
0.0
 41
0.0
173
     1
 91
-1056964608
340
4
 92
       -2
290
     1
 42
2.0
291
     1
 43
0.36
  3
Standard
 44
4.0
300

342
7
174
     1
178
     6
175
     1
176
     0
 93
-1056964608
 45
4.0
292
     0
297
     0
 46
4.0
 94
-1056964608
 47
1.0
 49
1.0
140
1.0
293
     1
141
0.0
294
     1
177
     0
142
1.0
295
     0
296
     0
143
0.125
271
     0
272
     9
273
     9
  0
MLINESTYLE
  5
F
102
{ACAD_REACTORS
330
185
102
}
330
185
100
AcDbMlineStyle
  2
STANDARD
 70
     0
  3

 62
   256
 51
90.0
 52
90.0
 71
     2
 49
0.5
 62
     0
  6
CONTINUOUS
 49
-0.5
 62
     0
  6
CONTINUOUS
  0
ACDBPLACEHOLDER
  5
19C
102
{ACAD_REACTORS
330
19B
102
}
330
19B
  0
SCALE
  5
1CB
102
{ACAD_REACTORS
330
1CA
102
}
330
1CA
100
AcDbScale
 70
     0
300
1:1
140
1.0
141
1.0
290
     1
  0
SCALE
  5
1CC
102
{ACAD_REACTORS
330
1CA
102
}
330
1CA
100
AcDbScale
 70
     0
300
1:2
140
1.0
141
2.0
290
     0
  0
SCALE
  5
1CD
102
{ACAD_REACTORS
330
1CA
102
}
330
1CA
100
AcDbScale
 70
     0
300
1:4
140
1.0
141
4.0
290
     0
  0
SCALE
  5
1CE
102
{ACAD_REACTORS
330
1CA
102
}
330
1CA
100
AcDbScale
 70
     0
300
1:5
140
1.0
141
5.0
290
     0
  0
SCALE
  5
1CF
102
{ACAD_REACTORS
330
1CA
102
}
330
1CA
100
AcDbScale
 70
     0
300
1:8
140
1.0
141
8.0
290
     0
  0
SCALE
  5
1D0
102
{ACAD_REACTORS
330
1CA
102
}
330
1CA
100
AcDbScale
 70
     0
300
1:10
140
1.0
141
10.0
290
     0
  0
SCALE
  5
1D1
102
{ACAD_REACTORS
330
1CA
102
}
330
1CA
100
AcDbScale
 70
     0
300
1:16
140
1.0
141
16.0
290
     0
  0
SCALE
  5
1D2
102
{ACAD_REACTORS
330
1CA
102
}
330
1CA
100
AcDbScale
 70
     0
300
1:20
140
1.0
141
20.0
290
     0
  0
SCALE
  5
1D3
102
{ACAD_REACTORS
330
1CA
102
}
330
1CA
100
AcDbScale
 70
     0
300
1:30
140
1.0
141
30.0
290
     0
  0
SCALE
  5
1D4
102
{ACAD_REACTORS
330
1CA
102
}
330
1CA
100
AcDbScale
 70
     0
300
1:40
140
1.0
141
40.0
290
     0
  0
SCALE
  5
1D5
102
{ACAD_REACTORS
330
1CA
102
}
330
1CA
100
AcDbScale
 70
     0
300
1:50
140
1.0
141
50.0
290
     0
  0
SCALE
  5
1D6
102
{ACAD_REACTORS
330
1CA
102
}
330
1CA
100
AcDbScale
 70
     0
300
1:100
140
1.0
141
100.0
290
     0
  0
SCALE
  5
1D7
102
{ACAD_REACTORS
330
1CA
102
}
330
1CA
100
AcDbScale
 70
     0
300
2:1
140
2.0
141
1.0
290
     0
  0
SCALE
  5
1D8
102
{ACAD_REACTORS
330
1CA
102
}
330
1CA
100
AcDbScale
 70
     0
300
4:1
140
4.0
141
1.0
290
     0
  0
SCALE
  5
1D9
102
{ACAD_REACTORS
330
1CA
102
}
330
1CA
100
AcDbScale
 70
     0
300
8:1
140
8.0
141
1.0
290
     0
  0
SCALE
  5
1DA
102
{ACAD_REACTORS
330
1CA
102
}
330
1CA
100
AcDbScale
 70
     0
300
10:1
140
10.0
141
1.0
290
     0
  0
SCALE
  5
1DB
102
{ACAD_REACTORS
330
1CA
102
}
330
1CA
100
AcDbScale
 70
     0
300
100:1
140
100.0
141
1.0
290
     0
  0
SCALE
  5
1DC
102
{ACAD_REACTORS
330
1CA
102
}
330
1CA
100
AcDbScale
 70
     0
300
1/128" = 1'-0"
140
0.0078125
141
12.0
290
     0
  0
SCALE
  5
1DD
102
{ACAD_REACTORS
330
1CA
102
}
330
1CA
100
AcDbScale
 70
     0
300
1/64" = 1'-0"
140
0.015625
141
12.0
290
     0
  0
SCALE
  5
1DE
102
{ACAD_REACTORS
330
1CA
102
}
330
1CA
100
AcDbScale
 70
     0
300
1/32" = 1'-0"
140
0.03125
141
12.0
290
     0
  0
SCALE
  5
1DF
102
{ACAD_REACTORS
330
1CA
102
}
330
1CA
100
AcDbScale
 70
     0
300
1/16" = 1'-0"
140
0.0625
141
12.0
290
     0
  0
SCALE
  5
1E0
102
{ACAD_REACTORS
330
1CA
102
}
330
1CA
100
AcDbScale
 70
     0
300
3/32" = 1'-0"
140
0.09375
141
12.0
290
     0
  0
SCALE
  5
1E1
102
{ACAD_REACTORS
330
1CA
102
}
330
1CA
100
AcDbScale
 70
     0
300
1/8" = 1'-0"
140
0.125
141
12.0
290
     0
  0
SCALE
  5
1E2
102
{ACAD_REACTORS
330
1CA
102
}
330
1CA
100
AcDbScale
 70
     0
300
3/16" = 1'-0"
140
0.1875
141
12.0
290
     0
  0
SCALE
  5
1E3
102
{ACAD_REACTORS
330
1CA
102
}
330
1CA
100
AcDbScale
 70
     0
300
1/4" = 1'-0"
140
0.25
141
12.0
290
     0
  0
SCALE
  5
1E4
102
{ACAD_REACTORS
330
1CA
102
}
330
1CA
100
AcDbScale
 70
     0
300
3/8" = 1'-0"
140
0.375
141
12.0
290
     0
  0
SCALE
  5
1E5
102
{ACAD_REACTORS
330
1CA
102
}
330
1CA
100
AcDbScale
 70
     0
300
1/2" = 1'-0"
140
0.5
141
12.0
290
     0
  0
SCALE
  5
1E6
102
{ACAD_REACTORS
330
1CA
102
}
330
1CA
100
AcDbScale
 70
     0
300
3/4" = 1'-0"
140
0.75
141
12.0
290
     0
  0
SCALE
  5
1E7
102
{ACAD_REACTORS
330
1CA
102
}
330
1CA
100
AcDbScale
 70
     0
300
1" = 1'-0"
140
1.0
141
12.0
290
     0
  0
SCALE
  5
1E8
102
{ACAD_REACTORS
330
1CA
102
}
330
1CA
100
AcDbScale
 70
     0
300
1-1/2" = 1'-0"
140
1.5
141
12.0
290
     0
  0
SCALE
  5
1E9
102
{ACAD_REACTORS
330
1CA
102
}
330
1CA
100
AcDbScale
 70
     0
300
3" = 1'-0"
140
3.0
141
12.0
290
     0
  0
SCALE
  5
1EA
102
{ACAD_REACTORS
330
1CA
102
}
330
1CA
100
AcDbScale
 70
     0
300
6" = 1'-0"
140
6.0
141
12.0
290
     0
  0
SCALE
  5
1EB
102
{ACAD_REACTORS
330
1CA
102
}
330
1CA
100
AcDbScale
 70
     0
300
1'-0" = 1'-0"
140
12.0
141
12.0
290
     0
  0
TABLESTYLE
  5
1FB
102
{ACAD_XDICTIONARY
360
223
102
}
102
{ACAD_REACTORS
330
1C8
102
}
330
1C8
100
AcDbTableStyle
280
     0
  3

 70
     0
 71
     1
 40
0.06
 41
0.06
280
     0
281
     0
  7
Standard
140
0.4
170
     4
 62
     0
 63
     7
283
     0
 90
      512
 91
        0
  1

274
    -2
284
     0
 64
     0
275
    -2
285
     0
 65
     0
276
    -2
286
     1
 66
     0
277
    -2
287
     1
 67
     0
278
    -2
288
     0
 68
     0
279
    -2
289
     1
 69
     0
  7
Standard
140
0.5
170
     5
 62
     0
 63
     7
283
     0
 90
      512
 91
        0
  1

274
    -2
284
     1
 64
     0
275
    -2
285
     0
 65
     0
276
    -2
286
     1
 66
     0
277
    -2
287
     1
 67
     0
278
    -2
288
     0
 68
     0
279
    -2
289
     1
 69
     0
  7
Standard
140
0.4
170
     4
 62
     0
 63
     7
283
     0
 90
      512
 91
        0
  1

274
    -2
284
     1
 64
     0
275
    -2
285
     0
 65
     0
276
    -2
286
     1
 66
     0
277
    -2
287
     1
 67
     0
278
    -2
288
     0
 68
     0
279
    -2
289
     1
 69
     0
  0
TABLESTYLE
  5
1C9
102
{ACAD_XDICTIONARY
360
221
102
}
102
{ACAD_REACTORS
330
1C8
102
}
330
1C8
100
AcDbTableStyle
280
     0
  3
Standard
 70
     0
 71
     0
 40
1.5
 41
1.5
280
     0
281
     0
  7
Standard
140
4.5
170
     2
 62
     0
 63
     7
283
     0
 90
      512
 91
        0
  1

274
    -2
284
     1
 64
     0
275
    -2
285
     1
 65
     0
276
    -2
286
     1
 66
     0
277
    -2
287
     1
 67
     0
278
    -2
288
     1
 68
     0
279
    -2
289
     1
 69
     0
  7
Standard
140
6.0
170
     5
 62
     0
 63
     7
283
     0
 90
      512
 91
        0
  1

274
    -2
284
     1
 64
     0
275
    -2
285
     1
 65
     0
276
    -2
286
     1
 66
     0
277
    -2
287
     1
 67
     0
278
    -2
288
     1
 68
     0
279
    -2
289
     1
 69
     0
  7
Standard
140
4.5
170
     5
 62
     0
 63
     7
283
     0
 90
      512
 91
        0
  1

274
    -2
284
     1
 64
     0
275
    -2
285
     1
 65
     0
276
    -2
286
     1
 66
     0
277
    -2
287
     1
 67
     0
278
    -2
288
     1
 68
     0
279
    -2
289
     1
 69
     0
  0
VISUALSTYLE
  5
1BC
102
{ACAD_REACTORS
330
1B6
102
}
330
1B6
100
AcDbVisualStyle
  2
2dWireframe
 70
     4
177
     2
291
     0
 71
     0
176
     1
 72
     2
176
     1
 73
     0
176
     1
 90
        0
176
     1
 40
0.6
176
     1
 41
30.0
176
     1
 63
     7
421
 16777215
176
     1
 74
     1
176
     1
 91
        4
176
     1
 64
     7
176
     1
 65
   257
176
     1
 75
     1
176
     1
175
     1
176
     1
 42
1.0
176
     1
 92
        0
176
     1
 66
   257
176
     1
 43
1.0
176
     1
 76
     1
176
     1
 77
     6
176
     1
 78
     2
176
     1
 67
     7
176
     1
 79
     5
176
     1
170
     0
176
     1
171
     0
176
     1
290
     0
176
     1
 93
        1
176
     1
 44
0.0
176
     1
173
     0
176
     1
  0
VISUALSTYLE
  5
1BE
102
{ACAD_REACTORS
330
1B6
102
}
330
1B6
100
AcDbVisualStyle
  2
3D Hidden
 70
     6
177
     2
291
     0
 71
     1
176
     1
 72
     2
176
     1
 73
     2
176
     1
 90
        0
176
     1
 40
0.6
176
     1
 41
30.0
176
     1
 63
     7
421
 16777215
176
     1
 74
     2
176
     1
 91
        2
176
     1
 64
     7
176
     1
 65
   257
176
     1
 75
     2
176
     1
175
     1
176
     1
 42
40.0
176
     1
 92
        0
176
     1
 66
   257
176
     1
 43
1.0
176
     1
 76
     1
176
     1
 77
     6
176
     1
 78
     2
176
     1
 67
     7
176
     1
 79
     3
176
     1
170
     0
176
     1
171
     0
176
     1
290
     0
176
     1
 93
        1
176
     1
 44
0.0
176
     1
173
     0
176
     1
  0
VISUALSTYLE
  5
1BD
102
{ACAD_REACTORS
330
1B6
102
}
330
1B6
100
AcDbVisualStyle
  2
3dWireframe
 70
     5
177
     2
291
     0
 71
     0
176
     1
 72
     2
176
     1
 73
     0
176
     1
 90
        0
176
     1
 40
0.6
176
     1
 41
30.0
176
     1
 63
     7
421
 16777215
176
     1
 74
     1
176
     1
 91
        4
176
     1
 64
     7
176
     1
 65
   257
176
     1
 75
     1
176
     1
175
     1
176
     1
 42
1.0
176
     1
 92
        0
176
     1
 66
   257
176
     1
 43
1.0
176
     1
 76
     1
176
     1
 77
     6
176
     1
 78
     2
176
     1
 67
     7
176
     1
 79
     5
176
     1
170
     0
176
     1
171
     0
176
     1
290
     0
176
     1
 93
        1
176
     1
 44
0.0
176
     1
173
     0
176
     1
  0
VISUALSTYLE
  5
1BB
102
{ACAD_REACTORS
330
1B6
102
}
330
1B6
100
AcDbVisualStyle
  2
Basic
 70
     7
177
     2
291
     1
 71
     1
176
     1
 72
     0
176
     1
 73
     1
176
     1
 90
        0
176
     1
 40
0.6
176
     1
 41
30.0
176
     1
 63
     7
421
 16777215
176
     1
 74
     0
176
     1
 91
        4
176
     1
 64
     7
176
     1
 65
   257
176
     1
 75
     1
176
     1
175
     1
176
     1
 42
1.0
176
     1
 92
        8
176
     1
 66
     7
176
     1
 43
1.0
176
     1
 76
     1
176
     1
 77
     6
176
     1
 78
     2
176
     1
 67
     7
176
     1
 79
     5
176
     1
170
     0
176
     1
171
     0
176
     1
290
     0
176
     1
 93
        1
176
     1
 44
0.0
176
     1
173
     0
176
     1
  0
VISUALSTYLE
  5
1C2
102
{ACAD_REACTORS
330
1B6
102
}
330
1B6
100
AcDbVisualStyle
  2
Brighten
 70
    12
177
     2
291
     1
 71
     2
176
     1
 72
     2
176
     1
 73
     0
176
     1
 90
        0
176
     1
 40
0.6
176
     1
 41
30.0
176
     1
 63
     7
421
 16777215
176
     1
 74
     1
176
     1
 91
        4
176
     1
 64
     7
176
     1
 65
   257
176
     1
 75
     1
176
     1
175
     1
176
     1
 42
1.0
176
     1
 92
        8
176
     1
 66
     7
176
     1
 43
1.0
176
     1
 76
     1
176
     1
 77
     6
176
     1
 78
     2
176
     1
 67
     7
176
     1
 79
     5
176
     1
170
     0
176
     1
171
     0
176
     1
290
     0
176
     1
 93
        1
176
     1
 44
50.0
176
     1
173
     0
176
     1
  0
VISUALSTYLE
  5
1C6
102
{ACAD_REACTORS
330
1B6
102
}
330
1B6
100
AcDbVisualStyle
  2
ColorChange
 70
    16
177
     2
291
     1
 71
     2
176
     1
 72
     2
176
     1
 73
     3
176
     1
 90
        0
176
     1
 40
0.6
176
     1
 41
30.0
176
     1
 63
     8
421
  8421504
176
     1
 74
     1
176
     1
 91
        4
176
     1
 64
     7
176
     1
 65
   257
176
     1
 75
     1
176
     1
175
     1
176
     1
 42
1.0
176
     1
 92
        8
176
     1
 66
     8
424
  8421504
176
     1
 43
1.0
176
     1
 76
     1
176
     1
 77
     6
176
     1
 78
     2
176
     1
 67
     7
176
     1
 79
     5
176
     1
170
     0
176
     1
171
     0
176
     1
290
     0
176
     1
 93
        1
176
     1
 44
0.0
176
     1
173
     0
176
     1
  0
VISUALSTYLE
  5
1BF
102
{ACAD_REACTORS
330
1B6
102
}
330
1B6
100
AcDbVisualStyle
  2
Conceptual
 70
     9
177
     2
291
     0
 71
     3
176
     1
 72
     2
176
     1
 73
     0
176
     1
 90
        0
176
     1
 40
0.6
176
     1
 41
30.0
176
     1
 63
     7
421
 16777215
176
     1
 74
     2
176
     1
 91
        2
176
     1
 64
     7
176
     1
 65
   257
176
     1
 75
     1
176
     1
175
     1
176
     1
 42
40.0
176
     1
 92
        8
176
     1
 66
     7
176
     1
 43
1.0
176
     1
 76
     1
176
     1
 77
     6
176
     1
 78
     2
176
     1
 67
     7
176
     1
 79
     3
176
     1
170
     0
176
     1
171
     0
176
     1
290
     0
176
     1
 93
        1
176
     1
 44
0.0
176
     1
173
     0
176
     1
  0
VISUALSTYLE
  5
1C1
102
{ACAD_REACTORS
330
1B6
102
}
330
1B6
100
AcDbVisualStyle
  2
Dim
 70
    11
177
     2
291
     1
 71
     2
176
     1
 72
     2
176
     1
 73
     0
176
     1
 90
        0
176
     1
 40
0.6
176
     1
 41
30.0
176
     1
 63
     7
421
 16777215
176
     1
 74
     1
176
     1
 91
        4
176
     1
 64
     7
176
     1
 65
   257
176
     1
 75
     1
176
     1
175
     1
176
     1
 42
1.0
176
     1
 92
        8
176
     1
 66
     7
176
     1
 43
1.0
176
     1
 76
     1
176
     1
 77
     6
176
     1
 78
     2
176
     1
 67
     7
176
     1
 79
     5
176
     1
170
     0
176
     1
171
     0
176
     1
290
     0
176
     1
 93
        1
176
     1
 44
-50.0
176
     1
173
     0
176
     1
  0
VISUALSTYLE
  5
2EA
102
{ACAD_REACTORS
330
1B6
102
}
330
1B6
100
AcDbVisualStyle
  2
EdgeColorOff
 70
    22
177
     2
291
     1
 71
     2
176
     0
 72
     2
176
     0
 73
     0
176
     0
 90
        0
176
     0
 40
0.6
176
     0
 41
30.0
176
     0
 63
     7
421
 16777215
176
     0
 74
     1
176
     0
 91
        4
176
     0
 64
     7
176
     0
 65
   257
176
     0
 75
     1
176
     0
175
     1
176
     0
 42
1.0
176
     0
 92
        8
176
     2
 66
     7
176
     0
 43
1.0
176
     0
 76
     1
176
     0
 77
     6
176
     0
 78
     2
176
     0
 67
     7
176
     0
 79
     5
176
     0
170
     0
176
     0
171
     0
176
     0
290
     0
176
     0
 93
        1
176
     0
 44
0.0
176
     0
173
     0
176
     0
  0
VISUALSTYLE
  5
1C5
102
{ACAD_REACTORS
330
1B6
102
}
330
1B6
100
AcDbVisualStyle
  2
Facepattern
 70
    15
177
     2
291
     1
 71
     2
176
     1
 72
     2
176
     1
 73
     0
176
     1
 90
        0
176
     1
 40
0.6
176
     1
 41
30.0
176
     1
 63
     7
421
 16777215
176
     1
 74
     1
176
     1
 91
        4
176
     1
 64
     7
176
     1
 65
   257
176
     1
 75
     1
176
     1
175
     1
176
     1
 42
1.0
176
     1
 92
        8
176
     1
 66
     7
176
     1
 43
1.0
176
     1
 76
     1
176
     1
 77
     6
176
     1
 78
     2
176
     1
 67
     7
176
     1
 79
     5
176
     1
170
     0
176
     1
171
     0
176
     1
290
     0
176
     1
 93
        1
176
     1
 44
0.0
176
     1
173
     0
176
     1
  0
VISUALSTYLE
  5
1B7
102
{ACAD_REACTORS
330
1B6
102
}
330
1B6
100
AcDbVisualStyle
  2
Flat
 70
     0
177
     2
291
     1
 71
     2
176
     1
 72
     1
176
     1
 73
     1
176
     1
 90
        2
176
     1
 40
0.6
176
     1
 41
30.0
176
     1
 63
     7
421
 16777215
176
     1
 74
     0
176
     1
 91
        4
176
     1
 64
     7
176
     1
 65
   257
176
     1
 75
     1
176
     1
175
     1
176
     1
 42
1.0
176
     1
 92
        8
176
     1
 66
     7
176
     1
 43
1.0
176
     1
 76
     1
176
     1
 77
     6
176
     1
 78
     2
176
     1
 67
     7
176
     1
 79
     5
176
     1
170
     0
176
     1
171
     0
176
     1
290
     0
176
     1
 93
       13
176
     1
 44
0.0
176
     1
173
     0
176
     1
  0
VISUALSTYLE
  5
1B8
102
{ACAD_REACTORS
330
1B6
102
}
330
1B6
100
AcDbVisualStyle
  2
FlatWithEdges
 70
     1
177
     2
291
     1
 71
     2
176
     1
 72
     1
176
     1
 73
     1
176
     1
 90
        2
176
     1
 40
0.6
176
     1
 41
30.0
176
     1
 63
     7
421
 16777215
176
     1
 74
     1
176
     1
 91
        4
176
     1
 64
     7
176
     1
 65
   257
176
     1
 75
     1
176
     1
175
     1
176
     1
 42
1.0
176
     1
 92
        0
176
     1
 66
   257
176
     1
 43
1.0
176
     1
 76
     1
176
     1
 77
     6
176
     1
 78
     2
176
     1
 67
     7
176
     1
 79
     5
176
     1
170
     0
176
     1
171
     0
176
     1
290
     0
176
     1
 93
       13
176
     1
 44
0.0
176
     1
173
     0
176
     1
  0
VISUALSTYLE
  5
1B9
102
{ACAD_REACTORS
330
1B6
102
}
330
1B6
100
AcDbVisualStyle
  2
Gouraud
 70
     2
177
     2
291
     1
 71
     2
176
     1
 72
     2
176
     1
 73
     1
176
     1
 90
        2
176
     1
 40
0.6
176
     1
 41
30.0
176
     1
 63
     7
421
 16777215
176
     1
 74
     0
176
     1
 91
        4
176
     1
 64
     7
176
     1
 65
   257
176
     1
 75
     1
176
     1
175
     1
176
     1
 42
1.0
176
     1
 92
        0
176
     1
 66
     7
176
     1
 43
1.0
176
     1
 76
     1
176
     1
 77
     6
176
     1
 78
     2
176
     1
 67
     7
176
     1
 79
     5
176
     1
170
     0
176
     1
171
     0
176
     1
290
     0
176
     1
 93
       13
176
     1
 44
0.0
176
     1
173
     0
176
     1
  0
VISUALSTYLE
  5
1BA
102
{ACAD_REACTORS
330
1B6
102
}
330
1B6
100
AcDbVisualStyle
  2
GouraudWithEdges
 70
     3
177
     2
291
     1
 71
     2
176
     1
 72
     2
176
     1
 73
     1
176
     1
 90
        2
176
     1
 40
0.6
176
     1
 41
30.0
176
     1
 63
     7
421
 16777215
176
     1
 74
     1
176
     1
 91
        4
176
     1
 64
     7
176
     1
 65
   257
176
     1
 75
     1
176
     1
175
     1
176
     1
 42
1.0
176
     1
 92
        0
176
     1
 66
   257
176
     1
 43
1.0
176
     1
 76
     1
176
     1
 77
     6
176
     1
 78
     2
176
     1
 67
     7
176
     1
 79
     5
176
     1
170
     0
176
     1
171
     0
176
     1
290
     0
176
     1
 93
       13
176
     1
 44
0.0
176
     1
173
     0
176
     1
  0
VISUALSTYLE
  5
2E2
102
{ACAD_REACTORS
330
1B6
102
}
330
1B6
100
AcDbVisualStyle
  2
Hidden
 70
     6
177
     2
291
     0
 71
     1
176
     1
 72
     2
176
     1
 73
     2
176
     1
 90
        0
176
     1
 40
0.6
176
     1
 41
30.0
176
     1
 63
     7
421
 16777215
176
     1
 74
     2
176
     1
 91
        2
176
     1
 64
     7
176
     1
 65
   257
176
     1
 75
     2
176
     1
175
     1
176
     1
 42
40.0
176
     1
 92
        0
176
     1
 66
   257
176
     1
 43
1.0
176
     1
 76
     1
176
     1
 77
     6
176
     1
 78
     2
176
     1
 67
     7
176
     1
 79
     3
176
     1
170
     0
176
     1
171
     0
176
     1
290
     0
176
     1
 93
        1
176
     1
 44
0.0
176
     1
173
     0
176
     1
  0
VISUALSTYLE
  5
2E8
102
{ACAD_REACTORS
330
1B6
102
}
330
1B6
100
AcDbVisualStyle
  2
JitterOff
 70
    20
177
     2
291
     1
 71
     2
176
     0
 72
     2
176
     0
 73
     0
176
     0
 90
        0
176
     0
 40
0.6
176
     0
 41
30.0
176
     0
 63
     7
421
 16777215
176
     0
 74
     1
176
     0
 91
        4
176
     0
 64
     7
176
     0
 65
   257
176
     0
 75
     1
176
     0
175
     1
176
     0
 42
1.0
176
     0
 92
       10
176
     2
 66
     7
176
     0
 43
1.0
176
     0
 76
     1
176
     0
 77
     6
176
     0
 78
     2
176
     0
 67
     7
176
     0
 79
     5
176
     0
170
     0
176
     0
171
     0
176
     0
290
     0
176
     0
 93
        1
176
     0
 44
0.0
176
     0
173
     0
176
     0
  0
VISUALSTYLE
  5
1C4
102
{ACAD_REACTORS
330
1B6
102
}
330
1B6
100
AcDbVisualStyle
  2
Linepattern
 70
    14
177
     2
291
     1
 71
     2
176
     1
 72
     2
176
     1
 73
     0
176
     1
 90
        0
176
     1
 40
0.6
176
     1
 41
30.0
176
     1
 63
     7
421
 16777215
176
     1
 74
     1
176
     1
 91
        4
176
     1
 64
     7
176
     1
 65
   257
176
     1
 75
     7
176
     1
175
     7
176
     1
 42
1.0
176
     1
 92
        8
176
     1
 66
     7
176
     1
 43
1.0
176
     1
 76
     1
176
     1
 77
     6
176
     1
 78
     2
176
     1
 67
     7
176
     1
 79
     5
176
     1
170
     0
176
     1
171
     0
176
     1
290
     0
176
     1
 93
        1
176
     1
 44
0.0
176
     1
173
     0
176
     1
  0
VISUALSTYLE
  5
2E9
102
{ACAD_REACTORS
330
1B6
102
}
330
1B6
100
AcDbVisualStyle
  2
OverhangOff
 70
    21
177
     2
291
     1
 71
     2
176
     0
 72
     2
176
     0
 73
     0
176
     0
 90
        0
176
     0
 40
0.6
176
     0
 41
30.0
176
     0
 63
     7
421
 16777215
176
     0
 74
     1
176
     0
 91
        4
176
     0
 64
     7
176
     0
 65
   257
176
     0
 75
     1
176
     0
175
     1
176
     0
 42
1.0
176
     0
 92
        9
176
     2
 66
     7
176
     0
 43
1.0
176
     0
 76
     1
176
     0
 77
     6
176
     0
 78
     2
176
     0
 67
     7
176
     0
 79
     5
176
     0
170
     0
176
     0
171
     0
176
     0
290
     0
176
     0
 93
        1
176
     0
 44
0.0
176
     0
173
     0
176
     0
  0
VISUALSTYLE
  5
1C0
102
{ACAD_REACTORS
330
1B6
102
}
330
1B6
100
AcDbVisualStyle
  2
Realistic
 70
     8
177
     2
291
     0
 71
     2
176
     1
 72
     2
176
     1
 73
     0
176
     1
 90
        0
176
     1
 40
0.6
176
     1
 41
30.0
176
     1
 63
     7
421
 16777215
176
     1
 74
     1
176
     1
 91
        0
176
     1
 64
     7
176
     1
 65
   257
176
     1
 75
     1
176
     1
175
     1
176
     1
 42
1.0
176
     1
 92
        8
176
     1
 66
     8
424
  7895160
176
     1
 43
1.0
176
     1
 76
     1
176
     1
 77
     6
176
     1
 78
     2
176
     1
 67
     7
176
     1
 79
     5
176
     1
170
     0
176
     1
171
     0
176
     1
290
     0
176
     1
 93
       13
176
     1
 44
0.0
176
     1
173
     0
176
     1
  0
VISUALSTYLE
  5
2E7
102
{ACAD_REACTORS
330
1B6
102
}
330
1B6
100
AcDbVisualStyle
  2
Shaded
 70
    27
177
     2
291
     0
 71
     2
176
     1
 72
     2
176
     1
 73
     1
176
     1
 90
        2
176
     1
 40
0.6
176
     1
 41
30.0
176
     1
 63
     7
421
 16777215
176
     1
 74
     0
176
     1
 91
        4
176
     1
 64
     7
176
     1
 65
   257
176
     1
 75
     1
176
     1
175
     1
176
     1
 42
1.0
176
     1
 92
        8
176
     1
 66
   257
176
     1
 43
1.0
176
     1
 76
     1
176
     1
 77
     6
176
     1
 78
     2
176
     1
 67
     8
425
  7895160
176
     1
 79
     3
176
     1
170
     0
176
     1
171
     0
176
     1
290
     0
176
     1
 93
        5
176
     1
 44
0.0
176
     1
173
     0
176
     1
  0
VISUALSTYLE
  5
2E6
102
{ACAD_REACTORS
330
1B6
102
}
330
1B6
100
AcDbVisualStyle
  2
Shaded with edges
 70
    26
177
     2
291
     0
 71
     2
176
     1
 72
     2
176
     1
 73
     1
176
     1
 90
        2
176
     1
 40
0.6
176
     1
 41
30.0
176
     1
 63
     7
421
 16777215
176
     1
 74
     1
176
     1
 91
       10
176
     1
 64
     7
176
     1
 65
   257
176
     1
 75
     2
176
     1
175
     1
176
     1
 42
1.0
176
     1
 92
        8
176
     1
 66
   257
176
     1
 43
1.0
176
     1
 76
     1
176
     1
 77
     6
176
     1
 78
     2
176
     1
 67
     7
176
     1
 79
     3
176
     1
170
     0
176
     1
171
     0
176
     1
290
     0
176
     1
 93
        5
176
     1
 44
0.0
176
     1
173
     0
176
     1
  0
VISUALSTYLE
  5
2E3
102
{ACAD_REACTORS
330
1B6
102
}
330
1B6
100
AcDbVisualStyle
  2
Shades of Gray
 70
    23
177
     2
291
     0
 71
     2
176
     1
 72
     2
176
     1
 73
     3
176
     1
 90
        0
176
     1
 40
0.6
176
     1
 41
30.0
176
     1
 63
     7
421
 16777215
176
     1
 74
     2
176
     1
 91
        2
176
     1
 64
     7
176
     1
 65
     7
176
     1
 75
     1
176
     1
175
     1
176
     1
 42
40.0
176
     1
 92
        8
176
     1
 66
     7
176
     1
 43
1.0
176
     1
 76
     1
176
     1
 77
     6
176
     1
 78
     2
176
     1
 67
     7
176
     1
 79
     3
176
     1
170
     0
176
     1
171
     0
176
     1
290
     0
176
     1
 93
        1
176
     1
 44
0.0
176
     1
173
     0
176
     1
  0
VISUALSTYLE
  5
2E4
102
{ACAD_REACTORS
330
1B6
102
}
330
1B6
100
AcDbVisualStyle
  2
Sketchy
 70
    24
177
     2
291
     0
 71
     1
176
     1
 72
     2
176
     1
 73
     2
176
     1
 90
        0
176
     1
 40
0.6
176
     1
 41
30.0
176
     1
 63
     7
421
 16777215
176
     1
 74
     2
176
     1
 91
        2
176
     1
 64
     7
176
     1
 65
     7
176
     1
 75
     1
176
     1
175
     1
176
     1
 42
40.0
176
     1
 92
       11
176
     1
 66
     7
176
     1
 43
1.0
176
     1
 76
     1
176
     1
 77
     6
176
     1
 78
     2
176
     1
 67
     7
176
     1
 79
     6
176
     1
170
     0
176
     1
171
     0
176
     1
290
     0
176
     1
 93
        1
176
     1
 44
0.0
176
     1
173
     0
176
     1
  0
VISUALSTYLE
  5
1C3
102
{ACAD_REACTORS
330
1B6
102
}
330
1B6
100
AcDbVisualStyle
  2
Thicken
 70
    13
177
     2
291
     1
 71
     2
176
     1
 72
     2
176
     1
 73
     0
176
     1
 90
        0
176
     1
 40
0.6
176
     1
 41
30.0
176
     1
 63
     7
421
 16777215
176
     1
 74
     1
176
     1
 91
        4
176
     1
 64
     7
176
     1
 65
   257
176
     1
 75
     1
176
     1
175
     1
176
     1
 42
1.0
176
     1
 92
       12
176
     1
 66
     7
176
     1
 43
1.0
176
     1
 76
     1
176
     1
 77
     6
176
     1
 78
     2
176
     1
 67
     7
176
     1
 79
     5
176
     1
170
     0
176
     1
171
     0
176
     1
290
     0
176
     1
 93
        1
176
     1
 44
0.0
176
     1
173
     0
176
     1
  0
VISUALSTYLE
  5
2E1
102
{ACAD_REACTORS
330
1B6
102
}
330
1B6
100
AcDbVisualStyle
  2
Wireframe
 70
     5
177
     2
291
     0
 71
     0
176
     1
 72
     2
176
     1
 73
     0
176
     1
 90
        0
176
     1
 40
0.6
176
     1
 41
30.0
176
     1
 63
     7
421
 16777215
176
     1
 74
     1
176
     1
 91
        4
176
     1
 64
     7
176
     1
 65
   257
176
     1
 75
     1
176
     1
175
     1
176
     1
 42
1.0
176
     1
 92
        0
176
     1
 66
   257
176
     1
 43
1.0
176
     1
 76
     1
176
     1
 77
     6
176
     1
 78
     2
176
     1
 67
     7
176
     1
 79
     3
176
     1
170
     0
176
     1
171
     0
176
     1
290
     0
176
     1
 93
        1
176
     1
 44
0.0
176
     1
173
     0
176
     1
  0
VISUALSTYLE
  5
2E5
102
{ACAD_REACTORS
330
1B6
102
}
330
1B6
100
AcDbVisualStyle
  2
X-Ray
 70
    25
177
     2
291
     0
 71
     2
176
     1
 72
     2
176
     1
 73
     1
176
     1
 90
        1
176
     1
 40
0.5
176
     1
 41
30.0
176
     1
 63
     7
421
 16777215
176
     1
 74
     1
176
     1
 91
        0
176
     1
 64
     7
176
     1
 65
   257
176
     1
 75
     1
176
     1
175
     1
176
     1
 42
1.0
176
     1
 92
        8
176
     1
 66
     7
176
     1
 43
1.0
176
     1
 76
     1
176
     1
 77
     6
176
     1
 78
     2
176
     1
 67
     7
176
     1
 79
     3
176
     1
170
     0
176
     1
171
     0
176
     1
290
     0
176
     1
 93
       13
176
     1
 44
0.0
176
     1
173
     0
176
     1
  0
DICTIONARYVAR
  5
230
102
{ACAD_REACTORS
330
22D
102
}
330
22D
100
DictionaryVariables
280
     0
  1
1:1
  0
DICTIONARYVAR
  5
22F
102
{ACAD_REACTORS
330
22D
102
}
330
22D
100
DictionaryVariables
280
     0
  1
STANDARD
  0
DICTIONARYVAR
  5
22E
102
{ACAD_REACTORS
330
22D
102
}
330
22D
100
DictionaryVariables
280
     0
  1
STANDARD
  0
DICTIONARYVAR
  5
384
102
{ACAD_REACTORS
330
22D
102
}
330
22D
100
DictionaryVariables
280
     0
  1
1
  0
DICTIONARYVAR
  5
385
102
{ACAD_REACTORS
330
22D
102
}
330
22D
100
DictionaryVariables
280
     0
  1
15
  0
DICTIONARYVAR
  5
23C
102
{ACAD_REACTORS
330
22D
102
}
330
22D
100
DictionaryVariables
280
     0
  1
0
  0
DICTIONARYVAR
  5
23B
102
{ACAD_REACTORS
330
22D
102
}
330
22D
100
DictionaryVariables
280
     0
  1
0
  0
XRECORD
  5
382
102
{ACAD_REACTORS
330
206
102
}
330
206
100
AcDbXrecord
280
     1
1000
ADE02C001
1070
     1
1070
     0
1002
{
1002
}
1002
{
1002
}
1002
{
1002
}
1000

  0
XRECORD
  5
2F6
102
{ACAD_REACTORS
330
2F5
102
}
330
2F5
100
AcDbXrecord
280
     1
330
1B
330
30
330
35
330
37
330
38
330
39
330
3A
330
3B
330
3C
330
3D
330
3E
330
3F
330
40
330
41
330
42
330
44
330
45
330
48
330
49
330
4A
330
4B
330
4D
330
4E
330
4F
330
50
330
51
330
52
330
53
330
54
330
55
330
56
330
57
330
58
330
59
330
5A
330
5B
330
5C
330
63
330
64
330
65
330
66
330
67
330
68
330
69
330
6A
330
6B
330
6C
330
6D
330
6E
330
6F
330
71
330
72
330
73
330
74
330
7B
330
7D
330
7F
330
82
330
89
330
8C
330
119
330
11A
330
124
330
125
330
12A
330
12B
330
130
330
131
330
15A
330
15B
330
165
330
166
330
16C
330
16D
330
16E
330
16F
330
170
330
171
330
172
330
173
330
174
330
175
330
176
330
177
330
178
330
179
330
17A
330
17B
330
17C
330
17D
330
17E
330
17F
330
180
  0
DMSTYLIZEDENTITIESTABLE
  5
202
102
{ACAD_REACTORS
330
1EF
102
}
330
1EF
100
AcMapDMStylizedEntitiesTable
 70
     1
  0
DICTIONARY
  5
203
102
{ACAD_REACTORS
330
1EF
102
}
330
1EF
100
AcDbDictionary
280
     1
281
     1
  0
DATATABLE
  5
1F3
102
{ACAD_REACTORS
330
1EF
102
}
330
1EF
100
AcDbDataTable
 70
     2
 90
        4
 91
       15
  1

 92
        3
  2
OriginalClassName
  3
AcMapDMDefaultStyle
  3
AcMapDMEntityStyle
  3
AcMapDMRasterStyle
  3
AcMapDMSEAnnotationStyle
  3
AcMapDMSEHatchStyle
  3
AcMapDMSETextStyle
  3
AcMapDMThematicStyle
  3
AcMapDMBaseElement
  3
AcMapDMAttachedDwgsQueryElement
  3
AcMapDMFeatureElement
  3
AcMapDMLayerElement
  3
AcMapDMCurrentDwgQueryElement
  3
AcMapDMRasterElement
  3
AcMapDMTopoElement
  3
AcMapDMTopoQueryElement
 92
        3
  2
ProxyDisplayName
  3
Default
  3
Entity
  3
Raster
  3
Annotation
  3
Hatch
  3
Text
  3
Thematic
  3
Map Base
  3
Ade Query
  3
Feature Class
  3
Layer
  3
Ade Project Query
  3
Raster
  3
Topology
  3
Topology Query
 92
        1
  2
CustomObjectType
 93
        2
 93
        2
 93
        2
 93
        2
 93
        2
 93
        2
 93
        2
 93
        1
 93
        1
 93
        1
 93
        1
 93
        1
 93
        1
 93
        1
 93
        1
 92
        1
  2
StyleCoExistanceType
 93
        1
 93
        1
 93
        1
 93
        1
 93
        1
 93
        1
 93
        2
 93
        0
 93
        0
 93
        0
 93
        0
 93
        0
 93
        0
 93
        0
 93
        0
  0
DMMAPMANAGER
  5
1F0
102
{ACAD_REACTORS
330
1EF
102
}
330
1EF
100
AcDbDictionary
281
     1
  3
DisplayMap1
350
1FA
100
AcDbDictionaryWithDefault
340
1FA
100
AcMapDMMapManager
 70
     1
340
1FA
  0
DMSTYLELIBRARY
  5
1F1
102
{ACAD_REACTORS
330
1EF
102
}
330
1EF
100
AcMapDMStyleLibrary
 70
     1
 70
     1
360
1F2
  0
DICTIONARY
  5
2F0
102
{ACAD_REACTORS
330
1EF
102
}
330
1EF
100
AcDbDictionary
281
     1
  0
DICTIONARY
  5
1A7
330
1A6
100
AcDbDictionary
280
     1
281
     1
  3
BUMPTILE
360
1A9
  3
DIFFUSETILE
360
1A8
  3
OPACITYTILE
360
1AC
  3
REFLECTIONTILE
360
1AB
  3
REFRACTIONTILE
360
1AD
  3
SPECULARTILE
360
1AA
  0
DICTIONARY
  5
19F
330
19E
100
AcDbDictionary
280
     1
281
     1
  3
BUMPTILE
360
1A1
  3
DIFFUSETILE
360
1A0
  3
OPACITYTILE
360
1A4
  3
REFLECTIONTILE
360
1A3
  3
REFRACTIONTILE
360
1A5
  3
SPECULARTILE
360
1A2
  0
DICTIONARY
  5
1AF
330
1AE
100
AcDbDictionary
280
     1
281
     1
  3
BUMPTILE
360
1B1
  3
DIFFUSETILE
360
1B0
  3
OPACITYTILE
360
1B4
  3
REFLECTIONTILE
360
1B3
  3
REFRACTIONTILE
360
1B5
  3
SPECULARTILE
360
1B2
  0
DICTIONARY
  5
223
330
1FB
100
AcDbDictionary
280
     1
281
     1
  3
ACAD_ROUNDTRIP_2008_TABLESTYLE_CELLSTYLEMAP
360
387
  0
DICTIONARY
  5
221
330
1C9
100
AcDbDictionary
280
     1
281
     1
  3
ACAD_ROUNDTRIP_2008_TABLESTYLE_CELLSTYLEMAP
360
386
  0
DMMAP
  5
1FA
102
{ACAD_REACTORS
330
1F0
330
1FC
102
}
330
1F0
100
AcMapDMMap
 70
     1
  1
Vorgabe
 70
     1
330
0
100
AcMapDMMap
 70
     1
 90
        1
360
1FC
 90
        1
 40
1.797693134862314E+99
 70
     1
100
AcMapDMMap
 70
     5
 70
     0
 40
1.797693134862314E+99
290
     1
290
     1
 40
1.0
 40
3.0
  1
Legend
 90
        1
 40
1.797693134862314E+99
  1

 70
     0
 40
1.0
 70
     1
 90
        0
 90
        1
360
1FD
 40
1.797693134862314E+99
290
     0
290
     1
 40
1.0
 90
    40
290
     0
290
     1
 40
45.0
 40
45.0
  0
DMSTYLECATEGORY
  5
1F2
102
{ACAD_REACTORS
330
1F1
102
}
330
0
100
AcMapDMStyleCategory
 70
     1
  1
Anzeigestile
 70
     0
  0
XRECORD
  5
1A9
102
{ACAD_REACTORS
330
1A7
102
}
330
1A7
100
AcDbXrecord
280
     1
270
     1
271
     1
  0
XRECORD
  5
1A8
102
{ACAD_REACTORS
330
1A7
102
}
330
1A7
100
AcDbXrecord
280
     1
270
     1
271
     1
  0
XRECORD
  5
1AC
102
{ACAD_REACTORS
330
1A7
102
}
330
1A7
100
AcDbXrecord
280
     1
270
     1
271
     1
  0
XRECORD
  5
1AB
102
{ACAD_REACTORS
330
1A7
102
}
330
1A7
100
AcDbXrecord
280
     1
270
     1
271
     1
  0
XRECORD
  5
1AD
102
{ACAD_REACTORS
330
1A7
102
}
330
1A7
100
AcDbXrecord
280
     1
270
     1
271
     1
  0
XRECORD
  5
1AA
102
{ACAD_REACTORS
330
1A7
102
}
330
1A7
100
AcDbXrecord
280
     1
270
     1
271
     1
  0
XRECORD
  5
1A1
102
{ACAD_REACTORS
330
19F
102
}
330
19F
100
AcDbXrecord
280
     1
270
     1
271
     1
  0
XRECORD
  5
1A0
102
{ACAD_REACTORS
330
19F
102
}
330
19F
100
AcDbXrecord
280
     1
270
     1
271
     1
  0
XRECORD
  5
1A4
102
{ACAD_REACTORS
330
19F
102
}
330
19F
100
AcDbXrecord
280
     1
270
     1
271
     1
  0
XRECORD
  5
1A3
102
{ACAD_REACTORS
330
19F
102
}
330
19F
100
AcDbXrecord
280
     1
270
     1
271
     1
  0
XRECORD
  5
1A5
102
{ACAD_REACTORS
330
19F
102
}
330
19F
100
AcDbXrecord
280
     1
270
     1
271
     1
  0
XRECORD
  5
1A2
102
{ACAD_REACTORS
330
19F
102
}
330
19F
100
AcDbXrecord
280
     1
270
     1
271
     1
  0
XRECORD
  5
1B1
102
{ACAD_REACTORS
330
1AF
102
}
330
1AF
100
AcDbXrecord
280
     1
270
     1
271
     1
  0
XRECORD
  5
1B0
102
{ACAD_REACTORS
330
1AF
102
}
330
1AF
100
AcDbXrecord
280
     1
270
     1
271
     1
  0
XRECORD
  5
1B4
102
{ACAD_REACTORS
330
1AF
102
}
330
1AF
100
AcDbXrecord
280
     1
270
     1
271
     1
  0
XRECORD
  5
1B3
102
{ACAD_REACTORS
330
1AF
102
}
330
1AF
100
AcDbXrecord
280
     1
270
     1
271
     1
  0
XRECORD
  5
1B5
102
{ACAD_REACTORS
330
1AF
102
}
330
1AF
100
AcDbXrecord
280
     1
270
     1
271
     1
  0
XRECORD
  5
1B2
102
{ACAD_REACTORS
330
1AF
102
}
330
1AF
100
AcDbXrecord
280
     1
270
     1
271
     1
  0
CELLSTYLEMAP
  5
387
102
{ACAD_REACTORS
330
223
102
}
330
223
100
AcDbCellStyleMap
 90
        3
300
CELLSTYLE
  1
TABLEFORMAT_BEGIN
 90
        5
170
     1
 91
        0
 92
    32768
 62
   257
 93
        1
300
CONTENTFORMAT
  1
CONTENTFORMAT_BEGIN
 90
        0
 91
        0
 92
      512
 93
        0
300

 40
0.0
140
1.0
 94
        5
 62
     0
340
7
144
0.5
309
CONTENTFORMAT_END
171
     1
301
MARGIN
  1
CELLMARGIN_BEGIN
 40
0.06
 40
0.06
 40
0.06
 40
0.06
 40
0.18
 40
0.18
309
CELLMARGIN_END
 94
        6
 95
        1
302
GRIDFORMAT
  1
GRIDFORMAT_BEGIN
 90
        0
 91
        1
 62
     0
 92
       -2
340
0
 93
        0
 40
0.045
309
GRIDFORMAT_END
 95
        2
302
GRIDFORMAT
  1
GRIDFORMAT_BEGIN
 90
        0
 91
        1
 62
     0
 92
       -2
340
0
 93
        1
 40
0.045
309
GRIDFORMAT_END
 95
        4
302
GRIDFORMAT
  1
GRIDFORMAT_BEGIN
 90
        0
 91
        1
 62
     0
 92
       -2
340
0
 93
        0
 40
0.045
309
GRIDFORMAT_END
 95
        8
302
GRIDFORMAT
  1
GRIDFORMAT_BEGIN
 90
        0
 91
        1
 62
     0
 92
       -2
340
0
 93
        0
 40
0.045
309
GRIDFORMAT_END
 95
       16
302
GRIDFORMAT
  1
GRIDFORMAT_BEGIN
 90
        0
 91
        1
 62
     0
 92
       -2
340
0
 93
        1
 40
0.045
309
GRIDFORMAT_END
 95
       32
302
GRIDFORMAT
  1
GRIDFORMAT_BEGIN
 90
        0
 91
        1
 62
     0
 92
       -2
340
0
 93
        0
 40
0.045
309
GRIDFORMAT_END
309
TABLEFORMAT_END
  1
CELLSTYLE_BEGIN
 90
        1
 91
        1
300
_TITLE
309
CELLSTYLE_END
300
CELLSTYLE
  1
TABLEFORMAT_BEGIN
 90
        5
170
     1
 91
        0
 92
        0
 62
   257
 93
        1
300
CONTENTFORMAT
  1
CONTENTFORMAT_BEGIN
 90
        0
 91
        0
 92
      512
 93
        0
300

 40
0.0
140
1.0
 94
        4
 62
     0
340
7
144
0.4
309
CONTENTFORMAT_END
171
     1
301
MARGIN
  1
CELLMARGIN_BEGIN
 40
0.06
 40
0.06
 40
0.06
 40
0.06
 40
0.18
 40
0.18
309
CELLMARGIN_END
 94
        6
 95
        1
302
GRIDFORMAT
  1
GRIDFORMAT_BEGIN
 90
        0
 91
        1
 62
     0
 92
       -2
340
0
 93
        0
 40
0.045
309
GRIDFORMAT_END
 95
        2
302
GRIDFORMAT
  1
GRIDFORMAT_BEGIN
 90
        0
 91
        1
 62
     0
 92
       -2
340
0
 93
        1
 40
0.045
309
GRIDFORMAT_END
 95
        4
302
GRIDFORMAT
  1
GRIDFORMAT_BEGIN
 90
        0
 91
        1
 62
     0
 92
       -2
340
0
 93
        0
 40
0.045
309
GRIDFORMAT_END
 95
        8
302
GRIDFORMAT
  1
GRIDFORMAT_BEGIN
 90
        0
 91
        1
 62
     0
 92
       -2
340
0
 93
        0
 40
0.045
309
GRIDFORMAT_END
 95
       16
302
GRIDFORMAT
  1
GRIDFORMAT_BEGIN
 90
        0
 91
        1
 62
     0
 92
       -2
340
0
 93
        1
 40
0.045
309
GRIDFORMAT_END
 95
       32
302
GRIDFORMAT
  1
GRIDFORMAT_BEGIN
 90
        0
 91
        1
 62
     0
 92
       -2
340
0
 93
        0
 40
0.045
309
GRIDFORMAT_END
309
TABLEFORMAT_END
  1
CELLSTYLE_BEGIN
 90
        2
 91
        1
300
_HEADER
309
CELLSTYLE_END
300
CELLSTYLE
  1
TABLEFORMAT_BEGIN
 90
        5
170
     1
 91
        0
 92
        0
 62
   257
 93
        1
300
CONTENTFORMAT
  1
CONTENTFORMAT_BEGIN
 90
        0
 91
        0
 92
      512
 93
        0
300

 40
0.0
140
1.0
 94
        4
 62
     0
340
7
144
0.4
309
CONTENTFORMAT_END
171
     1
301
MARGIN
  1
CELLMARGIN_BEGIN
 40
0.06
 40
0.06
 40
0.06
 40
0.06
 40
0.18
 40
0.18
309
CELLMARGIN_END
 94
        6
 95
        1
302
GRIDFORMAT
  1
GRIDFORMAT_BEGIN
 90
        0
 91
        1
 62
     0
 92
       -2
340
0
 93
        1
 40
0.045
309
GRIDFORMAT_END
 95
        2
302
GRIDFORMAT
  1
GRIDFORMAT_BEGIN
 90
        0
 91
        1
 62
     0
 92
       -2
340
0
 93
        1
 40
0.045
309
GRIDFORMAT_END
 95
        4
302
GRIDFORMAT
  1
GRIDFORMAT_BEGIN
 90
        0
 91
        1
 62
     0
 92
       -2
340
0
 93
        0
 40
0.045
309
GRIDFORMAT_END
 95
        8
302
GRIDFORMAT
  1
GRIDFORMAT_BEGIN
 90
        0
 91
        1
 62
     0
 92
       -2
340
0
 93
        0
 40
0.045
309
GRIDFORMAT_END
 95
       16
302
GRIDFORMAT
  1
GRIDFORMAT_BEGIN
 90
        0
 91
        1
 62
     0
 92
       -2
340
0
 93
        1
 40
0.045
309
GRIDFORMAT_END
 95
       32
302
GRIDFORMAT
  1
GRIDFORMAT_BEGIN
 90
        0
 91
        1
 62
     0
 92
       -2
340
0
 93
        0
 40
0.045
309
GRIDFORMAT_END
309
TABLEFORMAT_END
  1
CELLSTYLE_BEGIN
 90
        3
 91
        2
300
_DATA
309
CELLSTYLE_END
  0
CELLSTYLEMAP
  5
386
102
{ACAD_REACTORS
330
221
102
}
330
221
100
AcDbCellStyleMap
 90
        3
300
CELLSTYLE
  1
TABLEFORMAT_BEGIN
 90
        5
170
     1
 91
        0
 92
    32768
 62
   257
 93
        1
300
CONTENTFORMAT
  1
CONTENTFORMAT_BEGIN
 90
        0
 91
        0
 92
      512
 93
        0
300

 40
0.0
140
1.0
 94
        5
 62
     0
340
7
144
6.0
309
CONTENTFORMAT_END
171
     1
301
MARGIN
  1
CELLMARGIN_BEGIN
 40
1.5
 40
1.5
 40
1.5
 40
1.5
 40
0.18
 40
0.18
309
CELLMARGIN_END
 94
        6
 95
        1
302
GRIDFORMAT
  1
GRIDFORMAT_BEGIN
 90
        0
 91
        1
 62
     0
 92
       -2
340
0
 93
        0
 40
1.125
309
GRIDFORMAT_END
 95
        2
302
GRIDFORMAT
  1
GRIDFORMAT_BEGIN
 90
        0
 91
        1
 62
     0
 92
       -2
340
0
 93
        0
 40
1.125
309
GRIDFORMAT_END
 95
        4
302
GRIDFORMAT
  1
GRIDFORMAT_BEGIN
 90
        0
 91
        1
 62
     0
 92
       -2
340
0
 93
        0
 40
1.125
309
GRIDFORMAT_END
 95
        8
302
GRIDFORMAT
  1
GRIDFORMAT_BEGIN
 90
        0
 91
        1
 62
     0
 92
       -2
340
0
 93
        0
 40
1.125
309
GRIDFORMAT_END
 95
       16
302
GRIDFORMAT
  1
GRIDFORMAT_BEGIN
 90
        0
 91
        1
 62
     0
 92
       -2
340
0
 93
        0
 40
1.125
309
GRIDFORMAT_END
 95
       32
302
GRIDFORMAT
  1
GRIDFORMAT_BEGIN
 90
        0
 91
        1
 62
     0
 92
       -2
340
0
 93
        0
 40
1.125
309
GRIDFORMAT_END
309
TABLEFORMAT_END
  1
CELLSTYLE_BEGIN
 90
        1
 91
        1
300
_TITLE
309
CELLSTYLE_END
300
CELLSTYLE
  1
TABLEFORMAT_BEGIN
 90
        5
170
     1
 91
        0
 92
        0
 62
   257
 93
        1
300
CONTENTFORMAT
  1
CONTENTFORMAT_BEGIN
 90
        0
 91
        0
 92
      512
 93
        0
300

 40
0.0
140
1.0
 94
        5
 62
     0
340
7
144
4.5
309
CONTENTFORMAT_END
171
     1
301
MARGIN
  1
CELLMARGIN_BEGIN
 40
1.5
 40
1.5
 40
1.5
 40
1.5
 40
0.18
 40
0.18
309
CELLMARGIN_END
 94
        6
 95
        1
302
GRIDFORMAT
  1
GRIDFORMAT_BEGIN
 90
        0
 91
        1
 62
     0
 92
       -2
340
0
 93
        0
 40
1.125
309
GRIDFORMAT_END
 95
        2
302
GRIDFORMAT
  1
GRIDFORMAT_BEGIN
 90
        0
 91
        1
 62
     0
 92
       -2
340
0
 93
        0
 40
1.125
309
GRIDFORMAT_END
 95
        4
302
GRIDFORMAT
  1
GRIDFORMAT_BEGIN
 90
        0
 91
        1
 62
     0
 92
       -2
340
0
 93
        0
 40
1.125
309
GRIDFORMAT_END
 95
        8
302
GRIDFORMAT
  1
GRIDFORMAT_BEGIN
 90
        0
 91
        1
 62
     0
 92
       -2
340
0
 93
        0
 40
1.125
309
GRIDFORMAT_END
 95
       16
302
GRIDFORMAT
  1
GRIDFORMAT_BEGIN
 90
        0
 91
        1
 62
     0
 92
       -2
340
0
 93
        0
 40
1.125
309
GRIDFORMAT_END
 95
       32
302
GRIDFORMAT
  1
GRIDFORMAT_BEGIN
 90
        0
 91
        1
 62
     0
 92
       -2
340
0
 93
        0
 40
1.125
309
GRIDFORMAT_END
309
TABLEFORMAT_END
  1
CELLSTYLE_BEGIN
 90
        2
 91
        1
300
_HEADER
309
CELLSTYLE_END
300
CELLSTYLE
  1
TABLEFORMAT_BEGIN
 90
        5
170
     1
 91
        0
 92
        0
 62
   257
 93
        1
300
CONTENTFORMAT
  1
CONTENTFORMAT_BEGIN
 90
        0
 91
        0
 92
      512
 93
        0
300

 40
0.0
140
1.0
 94
        2
 62
     0
340
7
144
4.5
309
CONTENTFORMAT_END
171
     1
301
MARGIN
  1
CELLMARGIN_BEGIN
 40
1.5
 40
1.5
 40
1.5
 40
1.5
 40
0.18
 40
0.18
309
CELLMARGIN_END
 94
        6
 95
        1
302
GRIDFORMAT
  1
GRIDFORMAT_BEGIN
 90
        0
 91
        1
 62
     0
 92
       -2
340
0
 93
        0
 40
1.125
309
GRIDFORMAT_END
 95
        2
302
GRIDFORMAT
  1
GRIDFORMAT_BEGIN
 90
        0
 91
        1
 62
     0
 92
       -2
340
0
 93
        0
 40
1.125
309
GRIDFORMAT_END
 95
        4
302
GRIDFORMAT
  1
GRIDFORMAT_BEGIN
 90
        0
 91
        1
 62
     0
 92
       -2
340
0
 93
        0
 40
1.125
309
GRIDFORMAT_END
 95
        8
302
GRIDFORMAT
  1
GRIDFORMAT_BEGIN
 90
        0
 91
        1
 62
     0
 92
       -2
340
0
 93
        0
 40
1.125
309
GRIDFORMAT_END
 95
       16
302
GRIDFORMAT
  1
GRIDFORMAT_BEGIN
 90
        0
 91
        1
 62
     0
 92
       -2
340
0
 93
        0
 40
1.125
309
GRIDFORMAT_END
 95
       32
302
GRIDFORMAT
  1
GRIDFORMAT_BEGIN
 90
        0
 91
        1
 62
     0
 92
       -2
340
0
 93
        0
 40
1.125
309
GRIDFORMAT_END
309
TABLEFORMAT_END
  1
CELLSTYLE_BEGIN
 90
        3
 91
        2
300
_DATA
309
CELLSTYLE_END
  0
DMBASEELEMENT
  5
1FC
102
{ACAD_XDICTIONARY
360
200
102
}
102
{ACAD_REACTORS
330
1FA
102
}
330
1FA
100
AcMapDMBaseElement
 70
     1
  1
Kartenbasis
 70
     1
330
1FA
100
AcMapDMBaseElement
 70
     2
  1

 70
     2
  1

 70
     1
 40
1.797693134862314E+99
 70
     1
 70
     1
 70
     1
 70
     1
360
1FF
100
AcMapDMBaseElement
 70
     1
  0
DMDEFAULTSTYLE
  5
1FD
102
{ACAD_REACTORS
330
1FA
102
}
330
1FA
100
AcMapDMDefaultStyle
 70
     1
 90
        1
  1
Vorgabe
100
AcMapDMDefaultStyle
 70
     1
280
   100
 90
     0
1001
AcMapDMDisplayStyleRegapp
1070
     2
1071
        1
1000
Vorgabe
1000

  0
DICTIONARY
  5
200
330
1FC
100
AcDbDictionary
280
     1
281
     1
  3
AcMapDMSurrogateStyleSets
360
201
  0
DMSTYLEREFERENCE
  5
1FF
330
1FC
100
AcMapDMStyleReference
 70
     1
 70
     0
340
1FD
330
1FA
  0
DMSURROGATESTYLESETS
  5
201
102
{ACAD_REACTORS
330
200
102
}
330
200
100
AcMapDMSurrogateStyleSets
 70
     1
  1
Kartenbasis
 70
     1
 40
1.797693134862314E+99
 70
     1
 70
     1
 70
     1
 70
     1
330
1FF
 70
     0
  0
ENDSEC
  0
EOF
